» » »

Pencey Prep, Heroine Slow Tabs (ver.1)

Artists:  A B C D E F G H I J K L M N O P Q R S T U V W X Y Z # 

Heroine Slow Tabs (ver.1)

Pencey Prep Tabs
 Rating:
4.6/5 (10 votes)
Heroine Slow lessons Tabs too difficult? Try these video lessons and learn fast
                
| /  slide up
| h  hammer-on
| ~  vibrato
| +  harmonic
| x  mute

( ) - Lyrics to help you with timing
Tuning: Standard

Intro:
e|-4---4---4---4----4---4---4---4h5--|
B|---5-- 5---5---5--- 4---4--4-------|
G|-----------------------------------|
D|-----------------------------------|
A|-----------------------------------|
E|-----------------------------------|
*repeat until verse*

Or you could do this once the drums kick in...I don't know if it's bass or guitar, 
You really have to listen for it, too.
e|----------------------------------------|
B|----------------------------------------|
G|----------------------------------------|
D|----------------------7-7-7-9-7-6-6-9-9-|
A|---7-7-7-9-7-6-6-6-7-6------------------|
E|----------------------------------------|


Verse:
Guitar 1
(heroine slow...)
e|--------------------12~-----12~-------|
B|-------------12---------12~----12~----|
G|-9--11/13-13----13--------------------|
D|--------------------------------------|
A|--------------------------------------|
E|--------------------------------------|(2x)

Guitar 2:
e|-----------------------------|
B|-----------------------------|
G|-----------------------------|
D|-9-(8x)-9-(8x)-6-(8x)--------|
A|-7------6------4------6-(8X)-|
E|----------------------4------| (2x)

Guitar 1:
(I turned to you...)
e|-----11--0----|
B|-12+ ---------|
G|--------------|
D|--------------|
A|--------------|
E|--------------|

Guitar 2:
e|-----------------------------|
B|-----------------------------|
G|-----------------------------|
D|-9-(8x)-9-(8x)-6-(8x)-4-(8x)-|
A|-7------6------4------2------|
E|-----------------------------|(2x)


(live up to the name...)
Guitar 1:
e|-------------------------------------|
B|-------------------------------------|
G|-6-6--8-8--9-9---8-8--9-9--11-11-----|
D|-x-x--x-x--x-x---x-x--x-x--x--x------|
A|-4-4--6-6--7-7---6-6--7-7--9--9------|
E|-------------------------------------|

(here's the keyboard afterwards)
e|------------------|
B|------------------|
G|--9-8-9--6-9-8----|
D|---------------9--|
A|------------------|
E|------------------|
*repeat from octaves*

Guitar 2:
e|-------------------------------|
B|-------------------------------|
G|-------------------------------|
D|--------4-(8x)--6-(8x)--4-(8x)-|
A|-7-(8x)-2-------4-------2------|
E|-5-----------------------------|

(and I know...)
Guitar 1:
e|-------------------------------------|
B|---------------------9-10-12-10-9----|
G|-------------------9--------------9--|
D|-------------------------------------|
A|-7--(16x)--9--(8x)-------------------|
E|-5---------7-------------------------|

Guitar 2:
e|----------------------|
B|----------------------|
G|----------------------|
D|----------------------|
A|-7--(16x)--9--(16x)---|
E|-5---------7----------|

*intro*
*verse*
*intro*

Instrumental:
Keyboards:
e|------------------19-17-16--17-16--------|
B|-10-9-10-9------------------------19-17--|
G|-----------11-9--------------------------|
D|-----------------------------------------|
A|-----------------------------------------|
E|-----------------------------------------| (2x)

e|----12--12--12--12--12----19-17-16-17-16----|
B|-----------------------------------------19-|
G|--9---9---9---9---9-------------------------|
D|--------------------------------------------|
A|--------------------------------------------|
E|--------------------------------------------|(2x)

e|----------------------------------------------------------------------|
B|-9--9-10-12-10-9---9-10-12-10-9-12-10-9-10-9--------------------------|
G|---9-------------9---------------------------11-(repeat then end on 9)|
D|----------------------------------------------------------------------|
A|----------------------------------------------------------------------|
E|----------------------------------------------------------------------|

Guitar:
e|-----------------------------|
B|-----------------------------|
G|-----------------------------|
D|-9-(8x)-9-(8x)-6-(8x)-4-(8x)-|
A|-7------6------4------2------|
E|-----------------------------|(2x)

e|---------------------|
B|---------------------|
G|-9(8x)11(8x)-13(16x)-|
D|-x----x------x-------|
A|-7----9------11------|
E|---------------------| (2x)

e|-----------------------------|
B|-----------------------------|
G|-----------------------------|
D|-9-(8x)-9-(8x)-6-(8x)-4-(8x)-|
A|-7------6------4------2------|
E|-----------------------------|(2x)

End on:
e|---|
B|---|
G|---|
D|-9-|
A|-7-|
E|---|
            
Submit corrections

comments powered by Disqus
↑ Back to top | Pencey Prep Tabs for Heroine Slow. Lyrics for acoustic guitar and electric guitar. Tablatures and chords are parodies/interpretations of the original songs. You may use it for private study, scholarship, research or language learning purposes only