» » »

19 Tabs (ver.1)

Artists:  A B C D E F G H I J K L M N O P Q R S T U V W X Y Z # 

19 Tabs (ver.1)

Pencey Prep
Rating:
5/5 (2 votes)

Hard to play? Try these video lessons and learn fast.
                Here's the tab for the 19 song by pencey prep, great song by a great band :D
I'm not 100% sure about the tab, 'cause you can't really tab it exacly the way that they
it but I think it's good enough...If any thoughts crosses your mind just mail me


piano at the beginning then...

E|-------------7----7------|
B|---8----8----------------|
G|-5----4----5----4--------| gtr1
D|-------------------------|
A|-------------------------|
E|-------------------------|

E|--------------------------------|
B|--------------10-10-8-8-6-5-5h3-|
G|-5--7----7-9--------------------| 4X gtr2
D|--------------------------------|
A|--------------------------------|
E|--------------------------------|

I wear myself too thin, Can't help myself this time
E|----------------------------------|----------------------|
B|-5-5-555555-5-5-555555-5-5-555555-|-10-10-8-8-6-6-5-5----|
G|----------------------------------|----------------------|
D|----------------------------------|----------------------| gtr1
A|----------------------------------|----------------------|
E|----------------------------------|----------------------|

E|----------------------------------|----------------------|
B|----------------------------------|-6-5-3-5-3-1----------|
G|-5--7---7-9-----------------------|----------------------| gtr2
D|----------------------------------|----------------------|
A|----------------------------------|----------------------|
E|----------------------------------|----------------------|

I'm on the outside looking in, Can't see my self this time
E|----------------------------------|----------------------|
B|-5-5-555555-5-5-555555-5-5-555555-|-10-10-8-8-6-6-5-5----|
G|----------------------------------|----------------------| gtr1
D|----------------------------------|----------------------|
A|----------------------------------|----------------------|
E|----------------------------------|----------------------|

E|----------------------------------|----------------------|
B|----------------------------------|-6-5-3-5-3-1----------|
G|-5--7---7-9-----------------------|----------------------| gtr2
D|----------------------------------|----------------------|
A|----------------------------------|----------------------|
E|----------------------------------|----------------------|

Don't wanna go, don't wanna go, don't wanna drive back home, there's nothing left for me
It's 1 AM It's 2 AM...It's 4 in the morning
E|------------------5-3-5-3-5-3h5-3-------|
B|-5h6-5-5h6-5-3-3------------------------|
G|----------------------------------4h5-4-| 2X gtr1
D|----------------------------------------|
A|----------------------------------------|
E|----------------------------------------|

E|-------------------------5-h3-5-3-3------------------------------|
B|---------------------3-3-------------5-5-3h5---6-6-5-5-3-3-5-3-1-|
G|-5-5-5 555-5-5-5-555---------------------------------------------| 2X gtr2
D|-----------------------------------------------------------------|
A|-----------------------------------------------------------------|
E|-----------------------------------------------------------------|


Did I think she'd be here? Did I fool myself again? I think I did, I think I fooled
again
E|--------------------------------|
B|----------8~-----10~------------|
G|-5~-------7~-----9~-------------|
D|-5~-------5~-----7~----5~-------| gtr 1
A|-3~--------------------5~-------|
E|-----------------------3~-------|

E|--------------------------------|---------------|
B|--------------------------------|---------------|
G|-x--x---xxxxx-------------------|---------------|gtr2
D|-x--x---xxxxx-------------------|-5-5-5-5-5-5-5-|note: I don't how many
A|-x--x---xxxxx-------------------|-5-5-5-5-5-5-5-|times gtr2 plays the
E|--------------------------------|-3-3-3-3-3-3-3-|string mute try figure it
PM                                  ********       out by yourself :D


Again, again, again, I fooled myself again
E|---------------------------------------------------|
B|---------------------------------------------------|
G|---------------------------------------------------|
D|----5-3-2-0-0-----------------5-3-2-0--------------| gtr1
A|-3-----------3-5-7-8--------2-----------2-h3-2-----|
E|---------------------------------------------------|

E|--------------------------------------|
B|--------------------------------------|
G|-5~-------------------4~--pick-slide--| gtr2
D|-5~-------------------4~--------------|
A|-3~-------------------2~--------------|
E|--------------------------------------|


If I spend just one
E|-------------------------------------|
B|-------------------------8-6-5-3-1-0-|
G|-4-4-5---------4-4-5-----------------|
D|-------------------------------------| gtr1
A|-------------------------------------|
E|-------------------------------------|

E|-------------------------------------------|
B|-------------------------------------------|
G|-------------------------------------------|
D|-7~--7-7--7-7-7-7~--------5~-5-5-5-5-5-5-5-| gtr2
A|-7~--7-7--7-7-7-7~--------5~-5-5-5-5-5-5-5-|
E|-5~--5-5--5-5-5-5~--------3~-3-3-3-3-3-3-3-|
PM                             *************


Just one more night, just one more night, being mediocre
E|-------------------------------------------|
B|-------------------------------------------|
G|-------------------------------------------|
D|-3~----------5-----------7----5-5-5-5-5-5--| gtr1
A|-3~----------5-----------7----5-5-5-5-5-5--|
E|-1~----------3-----------5----3-3-3-3-3-3--|
PM                 ´            ***********
E|----------------------------0--------|
B|-------------------------------------|
G|-------------------------------------| gtr2
D|-3-xxx-3-xxx-5-xxx-5-xxx-7~----------|
A|-3-xxx-3-xxx-5-xxx-5-xxx-7~----------|
E|-1-xxx-1-xxx-3-xxx-3-xxx-5~----------|


Just one more night,just one more night,then I'll scream at the top of my lungs
E|---------------------------------------------------------------|
B|---------------------------------------------------------------|
G|-5-4-5-4-5-4-7-5-7-5-7-5-9-7-9-7-9-7---10-10-9-9-7-7^-5--------| gtr1
D|~--------------------------------------------------------------|
A|-~-------------------------------------------------------------|
E|-~-------------------------------------------------------------|

E|-----------------------------------------------------|
B|-----------------------------------------------------|
G|-----------------------------------------------------| gtr2
D|-3-xxx-3-xxx-5-xxx-5-xxx-77777777------5-5-xx-5-5-xx-|
A|-3-xxx-3-xxx-5-xxx-5-xxx-77777777------5-5-xx-5-5-xx-|
E|-1-xxx-1-xxx-3-xxx-3-xxx-55555555------3-3-xx-3-3-xx-|


Just one more night, just one more night, being mediocre
E|---------------------------------------------------------------|
B|---------------------------------------------------------------|
G|-5-5-----5-5-----5-5-----5-5-----5-5-----5-5-----7-7-5-9-9-7^--|
D|~----5-5-----5-5-----5-5-----5-5-----5-5-----5-5---------------| gtr1
A|-~-------------------------------------------------------------|
E|-~-------------------------------------------------------------|

E|---------------------------------------------------------------|
B|---------------------------------------------------------------|
G|---------------------------------------------------------------| gtr2
D|-3-xxx-3-xxx-5-xxx-5-xxx-77777777----------------5-5-xx-5-5-xx-|
A|-3-xxx-3-xxx-5-xxx-5-xxx-77777777----------------5-5-xx-5-5-xx-|
E|-1-xxx-1-xxx-3-xxx-3-xxx-55555555----------------3-3-xx-3-3-xx-|

Just one more night,just one more night,then I'll scream at the top of my lungs
E|---------------------------------------------------------------|
B|---------------------------------------------------------------|
G|-5-5-----5-5-----5-5-----5-5-----5-5-----5-5-----7-7-5-9-9-7^--|
D|~----5-5-----5-5-----5-5-----5-5-----5-5-----5-5---------------| gtr1
A|-~-------------------------------------------------------------|
E|-~-------------------------------------------------------------|

E|---------------------------------------------------------------|
B|---------------------------------------------------------------|
G|---------------------------------------------------------------| gtr2
D|-3-xxx-3-xxx-5-xxx-5-xxx-77777777----------------5-5-xx-5-5-xx-|
A|-3-xxx-3-xxx-5-xxx-5-xxx-77777777----------------5-5-xx-5-5-xx-|
E|-1-xxx-1-xxx-3-xxx-3-xxx-55555555----------------3-3-xx-3-3-xx-|


But it falls on deaf ears
E|--------------|----------------------------------------------|
B|--------------|----------------------------------------------|
G|--------------|----------------------------------------------|
D|-3-3-3-3-3-3--|-3-3-3-3-5-5-5-5-7-7-7-7-9-9--12--10----------|gtr1
A|-3-3-3-3-3-3--|-3-3-3-3-5-5-5-5-7-7-7-7-9-9--12--10----------|
E|-1-1-1-1-1-1--|-1-1-1-1-3-3-3-3-5-5-5-5-7-7--10--8-----------|
PM ***********

E|--------------|-----------------------------------------------|
B|--------------|-----------------------------------------------|
G|--------------|-----------------------------------------------| gtr2
D|-3-3-3-3-3-3--|-3-3-3-3-5-5-5-5-7-7-7-7-9-9--12--10~----------|
A|-3-3-3-3-3-3--|-3-3-3-3-5-5-5-5-7-7-7-7-9-9--12--10~----------|
E|-1-1-1-1-1-1--|-1-1-1-1-3-3-3-3-5-5-5-5-7-7--10--8~-----------|
PM************************************************

E|-------------------------|--------------------------|
B|-------------------------|--------------------------|
G|-------------------------|--10-10-9-9-7-7h9-7-5-----|
D|-9~--9\7---5-------------|--------------------------| gtr2
A|-x~--x\x---x-------------|--------------------------|
E|-7~--5\7---3-----5-3-0---|--------------------------|
PM                 ******

I wear myself too thin, Can't help myself this time
E|-------------------------------------------------------------|
B|-3-5-5-555555-3-5-5-555555-3-5-5-555555--10-10-8-8-6-6-5-5---|
G|-------------------------------------------------------------|
D|-------------------------------------------------------------| gtr1
A|-------------------------------------------------------------|
E|-------------------------------------------------------------|

E|----------------------------------------|---------------------|
B|----------------------------------------|-6-5-3-5-3-1---------|
G|-5--7---7-9-----------------------------|---------------------| gtr2
D|----------------------------------------|---------------------|
A|----------------------------------------|---------------------|
E|----------------------------------------|---------------------|

I'm on the outside looking in, Can't see my self this time
E|----------------------------------------|---------------------|
B|-3-5-5-555555-3-5-5-555555-3-5-5-555555-|-10-10-8-8-6-6-5-5---|
G|----------------------------------------|---------------------| gtr1
D|----------------------------------------|---------------------|
A|----------------------------------------|---------------------|
E|----------------------------------------|---------------------|

E|----------------------------------------|---------------------|
B|----------------------------------------|-6-5-3-5-3-1---------|
G|-5--7---7-9-----------------------------|---------------------| gtr2
D|----------------------------------------|---------------------|
A|----------------------------------------|---------------------|
E|----------------------------------------|---------------------|


Don't wanna go, don't wanna go, don't wanna drive back home, there's nothing left for me
It's 1 AM It's 2 AM It's 4 in the morning
E|-------------------------3-h5-3------------|
B|-5h6-5-5h6-5-3h5-3-3h5-3-------------------|
G|--------------------------------4-h5-4-----|
D|-------------------------------------------| 2X gtr1
A|-------------------------------------------|
E|-------------------------------------------|

E|-------------------------5-h3-5-3-3------------------------------|
B|---------------------3-3-------------5-5-3h5---6-6-5-5-3-3-5-3-1-|
G|-5-5-5 555-5-5-5-555---------------------------------------------| 2X gtr2
D|-----------------------------------------------------------------|
A|-----------------------------------------------------------------|
E|-----------------------------------------------------------------|


Did I think she'd be here? Did I fool myself again?I think I did,I think I fooled myself again
E|---------------------|
B|---------------------|
G|-5~---4~-------------|
D|-5~---4~---7~---5~---| gtr1
A|-3~---2~---7~---5~---|
E|-----------5~---3~---|

E|--------------------------------|---------------|
B|--------------------------------|---------------|
G|-x--x---xxxxx-------------------|---------------|gtr 2
D|-x--x---xxxxx-------------------|-5-5-5-5-5-5-5-|note: I don't how many
A|-x--x---xxxxx-------------------|-5-5-5-5-5-5-5-|times gtr2 plays the
E|--------------------------------|-3-3-3-3-3-3-3-|string mute, try figure it
PM                                  ********       out by yourself :D

Again, again, again,I fooled myself again
E|-----------------------------------------------|
B|-----------------------------------------------|
G|-----------------------------------------------|
D|----5-3-2-0-0-------------5-3-2-0--------------| gtr1
A|-3-----------3-5-7-8----2-----------2-h3-2-----|
E|-----------------------------------------------|

E|----------------------------------------|
B|----------------------------------------|
G|-5~---------------------4~--pick-slide--| gtr2
D|-5~---------------------4~--------------|
A|-3~---------------------2~--------------|
E|----------------------------------------|


If I spend just one
E|--------------------------------------|
B|--------------------------8-6-5-3-1-0-|
G|-2-4-4-5---2-4-4-5-0------------------| gtr1
D|--------------------------------------|
A|--------------------------------------|
E|--------------------------------------|

E|-------------------------------------------|
B|-------------------------------------------|
G|-------------------------------------------|
D|-7~--7-7--7-7-7-7~--------5~-5-5-5-5-5-5-5-| gtr2
A|-7~--7-7--7-7-7-7~--------5~-5-5-5-5-5-5-5-|
E|-5~--5-5--5-5-5-5~--------3~-3-3-3-3-3-3-3-|
PM                             *************


Just one more night, just one more night, being mediocre
E|------------------------------------------|
B|------------------------------------------|
G|------------------------------------------| gtr1
D|-3~----------5----------7----5-5-5-5-5-5--|
A|-3~----------5----------7----5-5-5-5-5-5--|
E|-1~----------3----------5----3-3-3-3-3-3--|
PM                             ***********
E|----------------------------0--------|
B|-------------------------------------|
G|-------------------------------------| gtr 2
D|-3-xxx-3-xxx-5-xxx-5-xxx-7~----------|
A|-3-xxx-3-xxx-5-xxx-5-xxx-7~----------|
E|-1-xxx-1-xxx-3-xxx-3-xxx-5~----------|


Just one more night, just one more night, then I'll scream at the top of my lungs
E|--------------------------------------------------------------|
B|--------------------------------------------------------------|
G|-5-4-5-4-5-4-7-5-7-5-7-5-9-7-9-7-9-7---10-10-9-9-7-7-5--------| gtr1
D|~-------------------------------------------------------------|
A|-~------------------------------------------------------------|
E|-~------------------------------------------------------------|

E|------------------------------------------------------|
B|------------------------------------------------------|
G|------------------------------------------------------| gtr 2
D|-3-xxx-3-xxx-5-xxx-5-xxx-77777777-------5-5-xx-5-5-xx-|
A|-3-xxx-3-xxx-5-xxx-5-xxx-77777777-------5-5-xx-5-5-xx-|
E|-1-xxx-1-xxx-3-xxx-3-xxx-55555555-------3-3-xx-3-3-xx-|


Just one more night, just one more night, being mediocre
E|---------------------------------------------------------------|
B|---------------------------------------------------------------|
G|-5-5-----5-5-----5-5-----5-5-----5-5-----5-5-----7-7-5-9-9-7^--|
D|~----5-5-----5-5-----5-5-----5-5-----5-5-----5-5---------------| gtr1
A|---------------------------------------------------------------|
E|---------------------------------------------------------------|

E|------------------------------------------------------|
B|------------------------------------------------------|
G|------------------------------------------------------| gtr 2
D|-3-xxx-3-xxx-5-xxx-5-xxx-77777777-------5-5-xx-5-5-xx-|
A|-3-xxx-3-xxx-5-xxx-5-xxx-77777777-------5-5-xx-5-5-xx-|
E|-1-xxx-1-xxx-3-xxx-3-xxx-55555555-------3-3-xx-3-3-xx-|

Just one more night, just one more night, then I'll scream at the top of my lungs
E|---------------------------------------------------------------|
B|---------------------------------------------------------------|
G|-5-5-----5-5-----5-5-----5-5-----5-5-----5-5-----7-7-5-9-9-7^--|
D|~----5-5-----5-5-----5-5-----5-5-----5-5-----5-5---------------| gtr1
A|---------------------------------------------------------------|
E|---------------------------------------------------------------|

E|------------------------------------------------------|
B|------------------------------------------------------|
G|------------------------------------------------------| gtr 2
D|-3-xxx-3-xxx-5-xxx-5-xxx-77777777-------5-5-xx-5-5-xx-|
A|-3-xxx-3-xxx-5-xxx-5-xxx-77777777-------5-5-xx-5-5-xx-|
E|-1-xxx-1-xxx-3-xxx-3-xxx-55555555-------3-3-xx-3-3-xx-|


E|--------------|----------------------------------------------|
B|--------------|----------------------------------------------|
G|--------------|----------------------------------------------|
D|-3-3-3-3-3-3--|-3-3-3-3-5-5-5-5-7-7-7-7-9-9--12--10----------| gtr1
A|-3-3-3-3-3-3--|-3-3-3-3-5-5-5-5-7-7-7-7-9-9--12--10----------|
E|-1-1-1-1-1-1--|-1-1-1-1-3-3-3-3-5-5-5-5-7-7--10--8-----------|
PM ***********
E|--------------|----------------------------------------------|
B|--------------|----------------------------------------------|
G|--------------|----------------------------------------------| gtr 2
D|-3-3-3-3-3-3--|-3-3-3-3-5-5-5-5-7-7-7-7-9-9--12--10----------|
A|-3-3-3-3-3-3--|-3-3-3-3-5-5-5-5-7-7-7-7-9-9--12--10----------|
E|-1-1-1-1-1-1--|-1-1-1-1-3-3-3-3-5-5-5-5-7-7--10--8-----------|
PM **********************************************

E|-----------------------------|
B|-----------------------------|
G|-----------------------------|
D|-9~--9\7---5-----------------| gtr 2
A|-x~--x\x---x-----------------|
E|-7~--5\7---3-----5-3-0-----8-|
PM                ******

Gtr 2: pick slide

E|-----------------------------------------------------------------|
B|-10-8-6-5-5-3-1-0---------------10-8-6-5-5-3-1-0-----------------|
G|-----------------------------------------------------------------| 2X gtr1
D|-----------------------------------------------------------------|
A|-----------------------------------------------------------------|
E|-----------------------------------------------------------------|

E|-----------------------------------------------------------------|
B|-----------------------------------------------------------------|
G|-5-x-5-x-5-x-555-4-x-4-x-4-x-444---------------------------------|
D|-5-x-5-x-5-x-555-4-x-4-x-4-x-444-7-x-7-x-7-x-777-5-x-5-x-5-x-555-| 2X gtr2
A|-3-x-3-x-3-x-333-2-x-2-x-2-x-222-7-x-7-x-7-x-777-5-x-5-x-5-x-555-|
E|---------------------------------5-x-5-x-5-x-555-3-x-3-x-3-x-333-|

I scream out loud but no one hears a sound I take my life with lack of sleep
I believe the things I feel The things I see are fooling only me
E|-----------3--------------------|
B|-5-3-5-3-5---5-3-5-3-1-66-6-6---|
G|--------------------------------| 2X  gtr1
D|--------------------------------|
A|--------------------------------|
E|--------------------------------|

I scream out loud but no one hears a sound I take my life with lack of sleep
I believe the things I feel The things I see are fooling only me
E|------------------|
B|-0-1-3-5-5-6-8-10-|
G|------------------|
D|------------------|4X gtr1
A|------------------|
E|------------------|


E|-------------------|
B|-------------------|
G|-5-x-5-x-5-x-555---| 8X  gtr2
D|-5-x-5-x-5-x-555---|
A|-3-x-3-x-3-x-333---|
E|-------------------|

E|------------------|
B|------------------|
G|-5-x-5-x-5-x-555--|
D|-5-x-5-x-5-x-555--|8X gtr2
A|-3-x-3-x-3-x-333--|
E|------------------|

I scream out loud but no one hears a sound, I take my life with lack of sleep I believe
I feel The things I see are fooling only me
E|-------------------12-12-12-------------|
B|-13-13-13-12-12-12----------12-12-12----|
G|----------------------------------------|
D|----------------------------------------| 4X gtr1
A|----------------------------------------|
E|----------------------------------------|

E|---------------------------------------|
B|---------------------------------------|
G|-5555---4444---7777---5555-------------|
D|-5555---4444---7777---5555--pick-slide-| 2X gtr2
A|-3333---2222---5555---3333-------------|
E|---------------------------------------|


I scream out loud but no one hears a sound, I take my life with lack of sleep, I believe
I feel The things I see are fooling only me
E|-------------------------------------------------|
B|-5~-3-5~-3-5--10-8-6-5---5~-3-5-3-5--5--10-8-6-5-|
G|-------------------------------------------------|
D|-------------------------------------------------| gtr1
A|-------------------------------------------------|
E|-------------------------------------------------|

E|-----------------------------------------------|
B|-----------------------------------------------|
G|-5~----4~----7~----5~------5~---4~---7~---5~---|
D|-5~----4~----7~----5~------5~---4~---7~---5~---|  gtr2
A|-3~----2~----5~----3~------3~---2~---5~---3~---|
E|-----------------------------------------------|


I scream out loud but no one hears a sound, I take my life with lack of sleep, I believe
I feel The things I see are fooling only me
E|--------------3h5-3-----------------------3h5-3--------|
B|-5h6-5--3h5-3------------------5h6-5--3h5--------------|
G|------------------4h5-4--------------------------4h5-4-| gtr1
D|-------------------------------------------------------|
A|-------------------------------------------------------|
E|-------------------------------------------------------|

E|------------------------------|
B|-5-3-3h5-3-1----4-5-3-3h5-3-1-|
G|------------------------------|
D|------------------------------| 3X gtr 2
A|------------------------------|
E|------------------------------|

I scream out loud but no one hears a sound, I take my life with lack of sleep, I believe
I feel The things I see are fooling only me
E|-------------------|
B|-------------------|
G|-5~----------------|
D|-5~----------------| gtr1
A|-3~----------------|
E|-------------------|

E|----------------|
B|-5~-------------|
G|~---------------| gtr2
D|----------------|
A|----------------|
E|----------------|
            
Hard to play? Try these video lessons and learn fast. | Correct




comments powered by Disqus
↑ Back to top | Tablatures and chords are parodies/interpretations of the original songs. You may use it for private study, scholarship, research or language learning purposes only