» » »

Pencey Prep, 10 Rings Bass tabs (ver.1)

Artists:  A B C D E F G H I J K L M N O P Q R S T U V W X Y Z # 

10 Rings Bass tabs (ver.1)

Pencey Prep Tabs
Rating:
0/5 (0 votes)
10 Rings lessons Tabs too difficult? Try these video lessons and learn fast
                i lyk pencey prep...(bcoz of frankie...jk! their music is gud..)

soo i made this tab.

and i am sure that it is correct..


Intro - Bass starts at 0.03

G|--------|
D|--------|
A|---5~---|
E|--------|



Verse x2 - 0.08

G|----------------------------------------------------------|
D|----------------------------------------------------------|
A|-55555555-33333333-11111111-55555555----------------------|
E|----------------------------------------------------------|



Pre-Chorus/Chorus x2 (Pre-chorus and chorus are played twice)  - 0.22

G|-------------------------------------------|
D|-------------------------------------------|
A|-55555555----------------------------------|
E|----------55555555--88888888--33333333-----|


Pre-Verse - No bass until 0.55

G|-----------|
D|-----------|
A|-5~--------|
E|-----------|




Verse x2 - 0.59


G|----------------------------------------------------------|
D|----------------------------------------------------------|
A|-55555555-33333333-11111111-55555555----------------------|
E|----------------------------------------------------------|



Pre-Chorus/Chorus x2 - 1.14

G|-------------------------------------------|
D|-------------------------------------------|
A|-55555555----------------------------------|
E|----------55555555--88888888--33333333-----|




             |--------REST AT 1.47 FOR GUITAR SOLO---------|



Part before bridge x2 - 1.48

G|-------------------------------------------|
D|-------------------------------------------|
A|-55555555----------------------------------|
E|----------55555555--88888888--33333333-----|




Bridge - 1.52

G|---------------------------------------------------|
D|---------------------------------------------------|
A|-55555555------------------------------------------|
E|----------55555555--99999999--33333333-------------|


G|---------------------------------------------------|
D|---------------------------------------------------|
A|-55555555------------------------------------------|
E|----------55555555--77777777-----3~----------------|



Interlude I x4 - 2.10


G|-------------------------------------------|
D|-------------------------------------------|
A|-55555555----------------------------------|
E|----------55555555--88888888--33333333-----|



Interlude II - 2.24


G|--------------|
D|--------------|
A|-5~-----------|
E|----5~--7~--3~|



G|---------------------|
D|---------------------|
A|-5~------------------|
E|----55~--7~--3~------|


Repeat until 3.39

G|------------------------------------------|
D|------------------------------------------|
A|-555555555--------------------------------|
E|-----------55555555--77777777--33333333---|



Outro - 3.40

G|-------|
A|-------|
D|--5~---|
E|-------|

ENJOY!!! 

 
            

comments powered by Disqus
↑ Back to top | Pencey Prep Bass for 10 Rings. Lyrics for acoustic guitar and electric guitar. Tablatures and chords are parodies/interpretations of the original songs. You may use it for private study, scholarship, research or language learning purposes only