» » »

No Pense Que Era Amor Tabs (ver.1)

Artists:  A B C D E F G H I J K L M N O P Q R S T U V W X Y Z # 

No Pense Que Era Amor Tabs (ver.1)

Pedro Suarez Vertiz
Rating:
0/5 (0 votes)

Hard to play? Try these video lessons and learn fast.
                INTRO
e|--------10-------|
B|----------12-10--|
G|-----7-----------|
D|-7-9-------------|
A|-----------------|
E|-----------------|

*Violín
D – F# – Bm – D7 – G – A – D – B7 – Em – A – G – D
e|-------------------------------------7-9-10-9-7-5-7-7-7-7.-7-7-7.-5----|
B|---5-7-7-7-7.-7-7-7-8-7-7-7.-7-7-7-7--------------------------------8.-|
G|-7---------------------------------------------------------------------|
D|-----------------------------------------------------------------------|
A|-----------------------------------------------------------------------|
E|-----------------------------------------------------------------------|

e|-9-10-9-7----------7-----------5-7-5---------------------|
B|----------10.-7-10---7.-7-7-8.-------5.-5-5---5----------|
G|--------------------------------------------7---7-8-7..--|
D|---------------------------------------------------------|
A|---------------------------------------------------------|
E|---------------------------------------------------------|

           D                     F#
No pensé que era amor y lo dejaba correr
         Bm                    D7                G
Iba atando mis manos me alejo del ayer y del mar
    A                         D                     B7
Que antes miraba estando solo, hoy vale nada sin ti
       Em        A             G        D
Lo sé queda poco y ya te tienes que ir

       G         A              D                       B7
Mi alma llorará mi amor llorará y caerá en un pozo
         Em               A            D
Pues te vas y quedo muy solo cuantos segundos más
                       D7             G             A
Te podré mirar y es verdad que al hablar
                   D            B7        Em
De amor al hablar me destrozo, pues te vas
                 A             G     D
Y quedo tan solo que prefiero morir.
            D                 F#
Sin pensar en mañana sollozando de pie
           Bm                  D7               G
Ya no tengo palabras no te volveré a ver jamás (Riff 1)
                 A             D
Y esto me está arrancando todo me está matando
          B7        Em            A          G          D
Yo lo sé, está bien dentro de poco no te volveré a ver

SOLO
(Em – A – D – B7 – Em – A – G – D)

e|------------------------------------------------------|
B|--------------------------------10-----------10-------|
G|-10/11-10/11-10/11-11-9----9.-9----11-9----9----11-9--|
D|------------------------12--------------12------------|
A|------------------------------------------------------|
E|------------------------------------------------------|

e|-----------------10-14-10------------------------------|
B|-------10.-10-12----------12.-10----12.-10-------------|
G|-10/11---------------------------11--------11-9-7------|
D|--------------------------------------------------9-7--|
A|-------------------------------------------------------|
E|-------------------------------------------------------|

e|-----------------------------------------10-14-10---10--|
B|--------------------10-------------10-12----------12----|
G|-11-11-11-11-9----9----11-9—-10/11----------------------|
D|---------------12---------------------------------------|
A|--------------------------------------------------------|
E|--------------------------------------------------------|

e|----------------------------------------------------------------|
B|-12-10-----------------------------------------------10---------|
G|------12-10-9----------11-11-11-11-11-9----9----9/11----11------|
D|--------------11-9----------------------12---12------------12.--|
A|-------------------12-------------------------------------------|
E|----------------------------------------------------------------|

*Violín

           D                      F#
Yo pensé que era dueño de lo que podía ser
          Bm                   D7              G
Ya no toques mi piel si no vas a volver jamás
    A                     D           B7
Por que se inundan mis ojos al hablar de ti
          Em         A                  G      D
No lo sé, estaré loco o es que me quiero morir
          Em         A                  G      D
No lo sé, estaré loco o es que me quiero morir.

FIN:
e|-10-------------------|
B|----12----10/12-10..--|
G|-------11-------------|
D|----------------------|
A|----------------------|
E|----------------------|


*RIFF 1
e|-10-------------|
B|----10/12-10..--|
G|----------------|
D|----------------|
A|----------------|
E|----------------|
            
Hard to play? Try these video lessons and learn fast. | Correct




comments powered by Disqus
↑ Back to top | Tablatures and chords are parodies/interpretations of the original songs. You may use it for private study, scholarship, research or language learning purposes only