» » »

Pearl Jam, Yellow Ladbetter Tabs (ver.1)

Artists:  A B C D E F G H I J K L M N O P Q R S T U V W X Y Z # 

Yellow Ladbetter Tabs (ver.1)

Pearl Jam Tabs
 Rating:
4/5 (4 votes)
Yellow Ladbetter lessons Tabs too difficult? Try these video lessons and learn fast
                The correct Eddie Vedder Guitar solo

Tuning: ebgdaE
         ~~                       ~~
e|-----------7-----------------------|------------------------------------|
B|----5----5---7b--7b--7br-p9--11----|------------------------------------|
G|4h6--------------------------------|---9--------------------------------|
D|-----------------------------------|------11--9-------------------------|
A|-----------------------------------|--------------11/9--7---9br--7------|
E|-----------------------------------|---------------------------------9--|

e|----------------------------|----------9---------------------------------|
B|----------------------------|----12br-----12-9---------------------------|
G|----------------------------|-------------------11b--11br-p9--9--11--11--|
D|7---------------------------|x-x-----------------------------------------|
A|---9--7----7----7------9b-r-|x-------------------------------------------|
E|-------------9-----9--------|--------------------------------------------|
     *Trebelo bar                                          ~~
e|---------------------|---------------------------------------------------|
B|---------------------|---------------------12------12h14----14p12--14p12-|
G|-11*-11*-11*-11*-11*-|--11--9-------11/13------13------------------------|
D|---------------------|---------11----------------------------------------|
A|---------------------|---------------------------------------------------|
E|---------------------|---------------------------------------------------|
                              ~~
e|-------14br--12---12--14--12-----12-|---------9----------9----------------|
B|-14p12---------14--------------------|-------9---9---12b----12-9----------|
G|-------------------------------------|-/11b-----------------------11------|br-p9
D|-------------------------------------|------------------------------------|
A|-------------------------------------|------------------------------------|
E|-------------------------------------|------------------------------------|
                  ~~
e|--------------------------------------------------------------------------|
B|-----------------------------------------------------------------------12-|
G|-11p9----11----9------11--9----9--11p9--11b-----9-----9--11--9---11/13----|
D|------11----11--------------11---------------------11---------------------|
A|--------------------------------------------------------------------------|
E|--------------------------------------------------------------------------|

e|-------------------------------------------------------------------------|
B|----14---12h14p12h14p12h14p12h14p12h14p12h14-----------------------------|
G|-13----------------------------------------------------------------------|
D|-------------------------------------------------------------------------|
A|-------------------------------------------------------------------------|
E|-------------------------------------------------------------------------|

| /  slide up        b    bend(full)
|   slide down      br   bend(full) & release(full)
| h  hammer-on       ***  Trebelo bar
| p  pull-off
| ~  vibrato
| +  harmonic
| x  Mute note
===============================================================================
            
Submit corrections

comments powered by Disqus
↑ Back to top | Pearl Jam Tabs for Yellow Ladbetter. Lyrics for acoustic guitar and electric guitar. Tablatures and chords are parodies/interpretations of the original songs. You may use it for private study, scholarship, research or language learning purposes only