» » »

Pearl Jam, Who You Are Tabs (ver.2)

Artists:  A B C D E F G H I J K L M N O P Q R S T U V W X Y Z # 

Who You Are Tabs (ver.2)

Pearl Jam Tabs
Rating:
0/5 (0 votes)
Who You Are lessons Tabs too difficult? Try these video lessons and learn fast
                Who You Are
Pearl Jam

Start Verse
e|----------0-----0---0---0-|
B|----------9-----9---7---5-|
G|--------------------------|
D|--------------------------|
A|--------------------------|
E|--------------------------|

Verse (x 2)
e|--0---0---0-----0---0---0-|
B|--5---7---9-----9---7---5-|
G|--------------------------|
D|--------------------------|
A|--------------------------|
E|--------------------------|

Chorus
e|--0---0---0-----0---0---0-|
B|--5---4---0-----2---4---5-|
G|--------------------------|
D|--------------------------|
A|--------------------------|
E|--------------------------|

Verse (x 3)
Chorus

Post Verse 1
Take me for a ride, before we leave...
e|----0---0---0---0---0---0---0---0---0---0---0---0---0---0---0---0---0---|
B|--5---5---2---2---2---2---2---4---4---4---4---4---5---5---5---5---5---5-|
G|------------------------------------------------------------------------|
D|------------------------------------------------------------------------|
A|------------------------------------------------------------------------|
E|------------------------------------------------------------------------|

e|--0---0---0---|
B|----5---5---5-|
G|--------------|
D|--------------|
A|--------------|
E|--------------|

Verse (x 3)
Chorus

Bridge (x 2)
e|--0-0-0-0-0-0-0-0-0-0-0-0-0-0-0-|
B|--5-4-5-4-2-4-2-0-2-4-2-4-5-4-5-|
G|--------------------------------|
D|--------------------------------|
A|--------------------------------|
E|--------------------------------|

e|--0-0-0---0---0---0---0-0-0---0---0---0---0-0-0-0-0-0-0--0-0--0-0-0--0-0-|
B|--5-4-5--/9---7---5---5-4-5--/7---5---4---5-4-5-4-5-4-5-/7-5--5-4-5-/7-5-|
G|-------------------------------------------------------------------------|
D|-------------------------------------------------------------------------|
A|-------------------------------------------------------------------------|
E|-------------------------------------------------------------------------|

Post Verse 2
Just a little time before we leave...
e|--0-0-0-0-0-0-0-0-0-0-0-0-0-0-0-0-|
B|--5-5-5-5-5-5-5-5-5-5-5-5-5-5-5-5-|
G|----------------------------------|
D|----------------------------------|
A|----------------------------------|
E|----------------------------------|

Verse (x 3)
Chorus

Solo (x 5)
e|----------------------------------------|
B|----------------------------------------|
G|----------------------------------------|
D|----------------------------------------|
A|----------------------------------------|
E|--0--2--4--5--7--9--7--5--4--5--4--2--0-|

e|----------------------------------------------------------------------|
B|----------------------------------------------------------------------|
G|----------------------------------------------------------------------|
D|----------------------------------------------------------------------|
A|----------------------------------------------------------------------|
E|--0--2--4--5--7--9--7--5--4--5--0--2--4--5--7--9--7--5--4--5--4--2--0-|
            

comments powered by Disqus
↑ Back to top | Pearl Jam Tabs for Who You Are. Lyrics for acoustic guitar and electric guitar. Tablatures and chords are parodies/interpretations of the original songs. You may use it for private study, scholarship, research or language learning purposes only