» » »

Pearl Jam, Untitled Tabs (ver.2)

Artists:  A B C D E F G H I J K L M N O P Q R S T U V W X Y Z # 

Untitled Tabs (ver.2)

Pearl Jam Tabs
 Rating:
4/5 (4 votes)
Untitled lessons Tabs too difficult? Try these video lessons and learn fast
                Ok! Here it is! A very simple, but great song. I wrote down two different ways how to play the song (actually sometimes Ed plays both ways. He then jumps to the second riff while he sings “alone” in the second verse).


E|----------(0)------------------(0)----------|
B|-----------3--------------------3-----------|
G|-----0--------------0-----0--------------0--|
D|--5-----5-----5--5-----4-----4-----4--4-----|
A|--------------------------------------------|
E|--------------------------------------------|

E|----------(0)---------------------(0)-------------|
B|-----------3-----------------------3--------------|
G|-----0-----------0-----0-----0-----------0-----0--|
D|--5-----5-----5-----5-----4-----4-----4-----4-----|
A|--------------------------------------------------|
E|--------------------------------------------------|

The reason I wrote “(0)”, is because Ed just plays the (0) (the “e”) instead of the D in the B-string sometimes, so play how you feel!


Lyrics:

Got a car, I got some gas
Let's get out of here
Get out of here fast

Oh, everyone's confused 
So I stay in my room
I wanna go, but I don't want to go alone

I hope you get this message
‘cause you're not home
I could be there in ? minutes or so (just pick a number)

I got my things
We'll make it up as we go along
Oh, with you I could never be alone
With you I could never be alone




It’s a very nice song to play, especially sitting around the camp fire! 

See ya!
            
Submit corrections

comments powered by Disqus
↑ Back to top | Pearl Jam Tabs for Untitled. Lyrics for acoustic guitar and electric guitar. Tablatures and chords are parodies/interpretations of the original songs. You may use it for private study, scholarship, research or language learning purposes only