>
 >
Unemployable

Unemployable Guitar Tabs

Pearl Jam - Unemployable chords, tabs, tablatures, lyrics

Guitar lessons | Add/correct | Request | Top 50 tabs Artists:  A B C D E F G H I J K L M N O P Q R S T U V W X Y Z 0-9

Unemployable Guitar Tabs – Pearl Jam

CD, Sheet music, Poster

Do you like Unemployable? Share with your friends now
Bass TabsTabs
I checked out the first version of this tab, and its wrong. This one isn't 100% correct,
its much closer than the other version. If you have any questions, comments, or if i
PEARL JAM ROCKS MY SOCKS OFF!!!!! (F.Y.I.: This is my first tab, so i hope
all like it. Enjoy!)

Intro:
   Play 1x                     Play 2x
e|--------------------------|------------------------2-||
A|--------------------------|----------------------3---||
D|--11------x7-----------4-6|-----4----------2-0-4-----||
G|--11------x7---7-7----5---|-----4--------2-----------||
B|--9-------x5---7-7--------|--2--2----0-4-------------||
E|---------------5-5--------|--------------------------||

Verse 1:
   Play 3x                    Play 1x
e|--------------------------|--------------------------||
A|--------------------------|--------------------------||
D|-------4-6-4--------------|-------4-6-4--------------||
G|-x7----------7-6-4-----4x-|-x7----------7-6-4--------||
B|-x7----------------7-4-4x-|-x7----------------7-4-x--||
E|-x5--------------------2x-|-x5-----------------------||

Chorus:

e|----------------------------------||
A|----------------------------------||
D|---------------------------2-2----||
G|----9---9-7-9---9-11-12----2-2-2--||
B|----9---9-7-9---9-11-12----0-0-2--||
E|----7---7-5-7---7--9-10--------0--||

e|----------------------------------||
A|----------------------------------||
D|-------------------------2-2------||
G|----9---9-7-9--11--12----2-2-2----||
B|----9---9-7-9--11--12----0-0-2----||
E|----7---7-5-7---9--10--------0----||

e|----------------------------------||
A|----------------------------------||
D|---------------------------2-2----||
G|----9---9-7-9---9-11-12----2-2-2--||
B|----9---9-7-9---9-11-12----0-0-2--||
E|----7---7-5-7---7--9-10--------0--||

e|----------------------------------||
A|----------------------------------||
D|----------------------------------||
G|----9---9-7-9--11--12-------------||
B|----9---9-7-9--11--12------0-2-4-2||
E|----7---7-5-7---9--10-------------||


Verse 2:
   Play 3x                   Play 1x
e|--------------------------|--------------------------||
A|--------------------------|--------------------------||
D|-------4-6-4--------------|-------4-6-4--------------||
G|-x7----------7-6-4-----4x-|-x7----------7-6-4--------||
B|-x7----------------7-4-4x-|-x7----------------7-4-x--||
E|-x5--------------------2x-|-x5-----------------------||

Chorus:

e|----------------------------------||
A|----------------------------------||
D|---------------------------2-2----||
G|----9---9-7-9---9-11-12----2-2-2--||
B|----9---9-7-9---9-11-12----0-0-2--||
E|----7---7-5-7---7--9-10--------0--||

e|----------------------------------||
A|----------------------------------||
D|-------------------------2-2------||
G|----9---9-7-9--11--12----2-2-2----||
B|----9---9-7-9--11--12----0-0-2----||
E|----7---7-5-7---9--10--------0----||

e|----------------------------------||
A|----------------------------------||
D|---------------------------2-2----||
G|----9---9-7-9---9-11-12----2-2-2--||
B|----9---9-7-9---9-11-12----0-0-2--||
E|----7---7-5-7---7--9-10--------0--||

e|----------------------------------||
A|----------------------------------||
D|-------------------------2-2------||
G|----9---9-7-9--11--12----2-2-2----||
B|----9---9-7-9--11--12----0-0-2----||
E|----7---7-5-7---9--10--------0----||

e|----------------------------------||
A|----------------------------------||
D|----------------------------------||
G|----9---9-7-9---9-11-12-----------||
B|----9---9-7-9---9-11-12-----------||
E|----7---7-5-7---7--9-10-----------||

Bridge:
   Play 2x
e|-------------------------------------------------------------||
A|-------------------------------------------------------------||
D|-------------------------------------------------------------||
G|--12--12--12-12--14--14-14--14-14--12--12--12-12----9--7-4---||
B|--12--12--12-12--14--14-14--14-14--12--12--12-12----9--7-4---||
E|--10--10--10-10--12--12-12--12-12--10--10--10-10----7--5-2---||

   Play 1x
e|-----------------------||
A|-----------------------||
D|-----------------------||
G|--12--12--12-12--14r---||
B|--12--12--12-12--14r---||
E|--10--10--10-10--12r---||


Solo:

e|--------------------------|------------------------2-||
A|--------------------------|----------------------3---||
D|--11------x7-----------4-6|-----4----------2-0-4-----||
G|--11------x7---7-7----5---|-----4--------2-----------||
B|--9-------x5---7-7--------|--2--2----0-4-------------||
E|---------------5-5--------|--------------------------||

e|-------------------------------------------||
A|---------------------3-------------3-6bsb--||
D|----4----------2-0-4---------2-0-4---------||
G|----4--------2-------------2---------------||
B|-2--2----0-4-----------0-4-----------------||
E|-------------------------------------------||


Chorus:

e|----------------------------------||
A|----------------------------------||
D|---------------------------2-2----||
G|----9---9-7-9---9-11-12----2-2-2--||
B|----9---9-7-9---9-11-12----0-0-2--||
E|----7---7-5-7---7--9-10--------0--||

e|----------------------------------||
A|----------------------------------||
D|-------------------------2-2------||
G|----9---9-7-9--11--12----2-2-2----||
B|----9---9-7-9--11--12----0-0-2----||
E|----7---7-5-7---9--10--------0----||

e|----------------------------------||
A|----------------------------------||
D|---------------------------2-2----||
G|----9---9-7-9---9-11-12----2-2-2--||
B|----9---9-7-9---9-11-12----0-0-2--||
E|----7---7-5-7---7--9-10--------0--||

e|----------------------------------||
A|----------------------------------||
D|-------------------------2-2------||
G|----9---9-7-9--11--12----2-2-2----||
B|----9---9-7-9--11--12----0-0-2----||
E|----7---7-5-7---9--10--------0----||

e|----------------------------------||
A|----------------------------------||
D|----------------------------------||
G|----9---9-7-9---9-11-12-----------||
B|----9---9-7-9---9-11-12-----------||
E|----7---7-5-7---7--9-10-----------||

Bridge:
   Play 3x
e|-------------------------------------------------------------||
A|-------------------------------------------------------------||
D|-------------------------------------------------------------||
G|--12--12--12-12--14--14-14--14-14--12--12--12-12----9--7-4---||
B|--12--12--12-12--14--14-14--14-14--12--12--12-12----9--7-4---||
E|--10--10--10-10--12--12-12--12-12--10--10--10-10----7--5-2---||


Outro:
   Play 2x
e|-----------------------|--------------------------------------------------||
A|-----------------------|--------------------------------------------------||
D|--16r---16r---18r-16-18|--16r---------------------------------------------||
G|--16r---16r---18r-16-18|--16r---------------------------------------------||
B|-----------------------|--16r---------------------------------------------||
E|-----------------------|--------------------------------------------------||
----------------------------------------------------------------------------||
And thats about it. If ya got any questions or comments, my email is at the top. Thanks
stopping by.... PEACE OUT YO!


KEY:
*b*-bend

*s*-straighten (At the end of the solo, you bend the sting, then straighten it, then
it again. It gives it that "wah wah" sound)

*r*- let the string(s) ring

*x*-mute the string





Comments


Popular Pearl Jam tabs & chords
Mfc Bass Tabs
Daughter Chords
Elderly Woman Behind The Counter 2 Chords
Black 1 Tabs
Black Lyric Corrections Tabs
Chop It Down Tabs
Daughter 5 Tabs
Elderly Woman Tabs
Long Road 1 Tabs
No Code Tabs


Song lyrics



↑ Back to top | Tablatures and chords are parodies/interpretations of the original songs. You may use it for private study, scholarship, research or language learning purposes only
© 2014 AZChords.com Contact us | Privacy policy | DMCA | Add/correct tabs | Request tabs | Top 50 tabs