» » »

Thumbing My Way Tabs (ver.3)

Artists:  A B C D E F G H I J K L M N O P Q R S T U V W X Y Z # 

Thumbing My Way Tabs (ver.3)

Pearl Jam
Rating:
0/5 (0 votes)

Hard to play? Try these video lessons and learn fast.
                
I tabbed this song listening to the 
live version of this song played by 
Pearl Jam at Royce Hall, UCLA: Los Angeles, CA- 
on 3/15/02.

Intro/Verse
e|---0-------------------------------------------------|
B|-3---3---3--------------------3-3-0-0----------------|
G|-2-----2----------------------2-2-2-2----------------|
D|-------------4v-4-4-2-0---0-------2-2----------------|
A|------------------------2----------------------------|
E|-----------------------------------------------------|

Chorus
e|-7--0-----3-------------------------------------------|
B|-8--3--1--3-------------------------------------------|
G|-7--2--0--0-------------------------------------------|
D|-------2--0-------------------------------------------|
A|-------3--2-------------------------------------------|
E|----------3-------------------------------------------|
Free Strumming
            
Hard to play? Try these video lessons and learn fast. | Correct




comments powered by Disqus
↑ Back to top | Tablatures and chords are parodies/interpretations of the original songs. You may use it for private study, scholarship, research or language learning purposes only