» » »

Thumbing My Way Tabs (ver.2)

Artists:  A B C D E F G H I J K L M N O P Q R S T U V W X Y Z # 

Thumbing My Way Tabs (ver.2)

Pearl Jam
Rating:
0/5 (0 votes)

Hard to play? Try these video lessons and learn fast.
                intro
verse
chorus
verse
bridge
chorus
verse
outro

intro:

e ------------------------------------3-3-3-3----3-3-3----0---0-0
b ---3---3-3-3------------------------3-3-3-3----3-3-3----2---2-2
g ---2---2-2-2---2---2-2-0-0----------0-0-0-0----0-0-0----2---2-2
d ---0---0-0-0---4---4-4-2-0-----0---------------2-2-2----2---2-2
a -------------------------------2------------------------0---0-0
e -------------------------------3----------------------------------

e -----------0-----------------------2----0--------------3-3-3-3----3-3-3----0---0-0
b ---3----------3--------------------3-------3-----------3-3-3-3----3-3-3----2---2-2
g ---2-------------2---------2-2-----2-------------------0-0-0-0----0-0-0----2---2-2
d ---0---0------------0------4-4-----0-------------0----------------2-2-2----2---2-2
a -------------------------------------------------2-------------------------0---0-0
e -------------------------------------------------3--------------------------------


verse:

e -----------0------------------------------------3-3-3----0---0-0
b ---3----------3-----------3-3-3-----------------3-3-3----2---2-2
g ---2-------------2--------2-2-2----0-0-0-0------0-0-0----2---2-2
d ---0---0------------0-----4-4-4----0-0-0-0------2-2-2----2---2-2
a -----------------------------------2-2-2-2---------------0---0-0
e ----------------------------------------------------------------
i have not been home...

e -----------0----------------------------------3-3-3-3----3-3-3----0---0-0
b ---3----------3-------------------------------3-3-3-3----3-3-3----2---2-2
g ---2-------------2--------2-2-2-0-0-----------0-0-0-0----0-0-0----2---2-2
d ---0---0------------0-----4-4-4-2-0-----0----------------2-2-2----2---2-2
a ----------------------------------------2-------------------------0---0-0
e ----------------------------------------3--------------------------------
thumbin my way....

e -----------0------------------------------------3-3-3----0---0-0
b ---3----------3-----------3-3-3-----------------3-3-3----2---2-2
g ---2-------------2--------2-2-2----0-0-0-0------0-0-0----2---2-2
d ---0---0------------0-----4-4-4----0-0-0-0------2-2-2----2---2-2
a -----------------------------------2-2-2-2---------------0---0-0
e ----------------------------------------------------------------
countin steps...

e -----------0-----------------------2----0--------------3-3-3-3----3-3-3----0---0-0
b ---3----------3--------------------3-------3-----------3-3-3-3----3-3-3----2---2-2
g ---2-------------2---------2-2-----2-------------------0-0-0-0----0-0-0----2---2-2
d ---0---0------------0------4-4-----0-------------0----------------2-2-2----2---2-2
a -------------------------------------------------2-------------------------0---0-0
e -------------------------------------------------3--------------------------------
countin my way...


chorus:

e ----3---3-3-3--------7---7-7-7---------3---3-3-3-------3---3-3-3-3-3----3---3-3-3-3
b ----3---3-3-3--------8---8-8-8---------3---3-3-3-------1---1-1-1-1-1----3---3-3-3-3
g ----0---0-0-0--------7---7-7-7---------0---0-0-0-------0---0-0-0-0-0----0---0-0-0-0
d ----0---0-0-0--------------------------0---0-0-0-------2---2-2-2-2-2----0---0-0-0-0
a ----2---2-2-2--------------------------2---2-2-2-------3---3-3-3-3-3----2---2-2-2-2
e ----3---3-3-3--------------------------3---3-3-3------------------------3---3-3-3-3
i can't be free...
(there's no wrong or right...)


bridge:

e ----8---8-8-8-8-8--------3---3-3-3-3-3----------1---1-1-1-1-1---------1---1-1-1-1-1
b ----5---5-5-5-5-5--------1---1-1-1-1-1----------3---3-3-3-3-3---------1---1-1-1-1-1
g ----5---5-5-5-5-5--------0---0-0-0-0-0----------3---3-3-3-3-3---------2---2-2-2-2-2
d ----5---5-5-5-5-5--------2---2-2-2-2-2----------3---3-3-3-3-3---------3---3-3-3-3-3
a -------------------------3---3-3-3-3-3----------1---1-1-1-1-1---------3---3-3-3-3-3
e ------------------------------------------------1---1-1-1-1-1---------1---1-1-1-1-1
i let go of the rope...
(i can't see what's next...)


outro:

e ----------0------------------------------------3-3-3-3----3-3-3----0---0-0
b ---3---------3---------------------------------3-3-3-3----3-3-3----2---2-2
g ---2------------2-------2---2-2-0-0------------0-0-0-0----0-0-0----2---2-2
d ---0---0-----------0----4---4-4-2-0-----0-----------------2-2-2----2---2-2
a ----------------------------------------2--------------------------0---0-0
e ----------------------------------------3---------------------------------
thumbin my way...

e -----------0-----------------------2----0---------------3-3-3-3----3-3-3----0---2--
b ---3----------3--------------------3-------3------------3-3-3-3----3-3-3----2---3--
g ---2-------------2---------2-2-----2--------------------0-0-0-0----0-0-0----2---2--
d ---0---0------------0------4-4-----0-------------0-----------------2-2-2----2---0--
a -------------------------------------------------2--------------------------0------
e -------------------------------------------------3---------------------------------
thumbin my way...

possibly the greatest song pj's ever recorded

listen to the song for chord transitions and make sure to alternate your strumming
up and down

enjoy
            
Hard to play? Try these video lessons and learn fast. | Correct




comments powered by Disqus
↑ Back to top | Tablatures and chords are parodies/interpretations of the original songs. You may use it for private study, scholarship, research or language learning purposes only