» » »

This Boy Tabs (ver.1)

Artists:  A B C D E F G H I J K L M N O P Q R S T U V W X Y Z # 

This Boy Tabs (ver.1)

Pearl Jam
Rating:
0/5 (0 votes)

Hard to play? Try these video lessons and learn fast.
                (05/17/99)

Beatles Cover.

-|--------------------------------------|-------------------------------------
-|--------------------------------------|-------------------------------------
-|--------------------------------------|-------------------------------------
-|--9-9-9-9-9-9-9-9--6-6-6-5-5-5-5-5/9--|-------------------------------------
-|--7-7-7-7-7-7-7-7--4-4-4-3-3-3-3-3/7--|-------------------------------------
-|--------------------------------------|-------------------------------------
 Verse\Chorus Gtr.1 Slight PM                                                 

-|----------------|--0-0-0-0-0-0-0-0--|---------------------------------------
-|----------------|--0-0-0-0-0-0-0-0--|---------------------------------------
-|--5--5--5--5/7--|--5-5-5-5-5-5-5-5--|---------------------------------------
-|--2--2--2--2/4--|--2-2-2-2-2-2-2-2--|---------------------------------------
-|--3--3--3--3/5--|--3-3-3-3-3-3-3-3--|---------------------------------------
-|----------------|-------------------|---------------------------------------
 Bridge Gtr.1   3x                      Repeat Whole Line Once                

-|----------------------------------8--|--------------------------------------
-|--------------------------------5----|--------------------------------------
-|------------------------------5------|--------------------------------------
-|--9-9-9-9-9-9-9-9--6-6-6\5--5--------|--------------------------------------
-|--7-7-7-7-7-7-7-7--4-4-4\3-----------|--------------------------------------
-|-------------------------------------|--------------------------------------
 Outro Gtr.1 PM---------|
            
Hard to play? Try these video lessons and learn fast. | Correct




comments powered by Disqus
↑ Back to top | Tablatures and chords are parodies/interpretations of the original songs. You may use it for private study, scholarship, research or language learning purposes only