» » »

Pearl Jam, The Kids Are Alright Tabs (ver.1)

Artists:  A B C D E F G H I J K L M N O P Q R S T U V W X Y Z # 

The Kids Are Alright Tabs (ver.1)

Pearl Jam Tabs
Rating:
0/5 (0 votes)
The Kids Are Alright lessons Tabs too difficult? Try these video lessons and learn fast
                I think only eddie play here too like patriot.

Intro
|--2-3p2-------2-0-2--------------
|--3-2-3-------3-3-3--------------
|--2-2-2-------2-2-2--------------
|--0-0-0-------0-0-0--------------
|---------------------------------
|---------------------------------

I don't mind all the guys dancing with my girl...
|--2-2-2-2----3-3-3-3---0-0-0-0---2-2-3p2---3-3-3-3---0-0-0-0-
|--3-3-3-3----3-3-3-3---2-2-2-2---3-3-3-3---3-3-3-3---2-2-2-2-
|--2-2-2-2----0-0-0-0---2-2-2-2---2-2-2-2---0-0-0-0---2-2-2-2-
|--0-0-0-0----0-0-0-0---2-2-2-2---0-0-0-0---0-0-0-0---2-2-2-2-
|-------------2-2-2-2---0-0-0-0-------------2-2-2-2---0-0-0-0-
|-------------3-3-3-3-----------------------3-3-3-3-----------

That´s fine
|--2-2-3p2----3-3-3-3---0-0-0-0---2-2-2-2-2-3-2-0-2-0--------
|--3-3-3-3----3-3-3-3---2-2-2-2---3-3-3-3-3-3-3-3-3-3--------
|--2-2-2-2----0-0-0-0---2-2-2-2---2-2-2-2-2-2-2-2-2-2--------
|--0-0-0-0----0-0-0-0---2-2-2-2---0-0-0-0-0-0-0-0-0-0--------
|-------------2-2-2-2---0-0-0-0------------------------------
|-------------3-3-3-3----------------------------------------

And I know sometimes I must get out in the light
|--0-0-0--0-0-0-0--3-3-3-3---2-2-3p2-------------------------
|--0-0-0--2-2-2-2--3-3-3-3---3-3-3-3-------------------------
|--0-0-0--2-2-2-2--0-0-0-0---2-2-2-2-------------------------
|--2-2-2--2-2-2-2--0-0-0-0---0-0-0-0-------------------------
|--2-2-2--0-0-0-0--2-2-2-2-----------------------------------
|--0-0-0-----------3-3-3-3-----------------------------------

Better leave her behind where the kids are alright...
|--0-0-0--0-0-0-0--2-2-3p2--0-0-0-0--2-2-3p2--0-0-0-0--------
|--0-0-0--2-2-2-2--3-3-3-3--2-2-2-2--3-3-3-3--2-2-2-2--------
|--0-0-0--2-2-2-2--2-2-2-2--2-2-2-2--2-2-2-2--2-2-2-2--------
|--2-2-2--2-2-2-2--0-0-0-0--2-2-2-2--0-0-0-0--2-2-2-2--------
|--2-2-2--0-0-0-0-----------0-0-0-0-----------0-0-0-0--------
|--0-0-0-----------------------------------------------------

Sometimes, I know I gotta get away... keep like beginnin
|--2-2-3p2----3-3-3-3---0-0-0-0---2-2-3p2---3-3-3-3---0-0-0-0-
|--3-3-3-3----3-3-3-3---2-2-2-2---3-3-3-3---3-3-3-3---2-2-2-2-
|--2-2-2-2----0-0-0-0---2-2-2-2---2-2-2-2---0-0-0-0---2-2-2-2-
|--0-0-0-0----0-0-0-0---2-2-2-2---0-0-0-0---0-0-0-0---2-2-2-2-
|-------------2-2-2-2---0-0-0-0-------------2-2-2-2---0-0-0-0-
|-------------3-3-3-3-----------------------3-3-3-3-----------

Repeat till 
|--3-0-0-0---3-0-0-0---3-0-0-0---3-0-0-0----------------------
|--3-2-2-2---3-2-2-2---3-2-2-2---3-2-2-2----------------------
|--0-2-2-2---0-2-2-2---0-2-2-2---0-2-2-2----------------------
|--0-2-2-2---0-2-2-2---0-2-2-2---0-2-2-2----------------------
|--2-0-0-0---2-0-0-0---2-0-0-0---2-0-0-0----------------------
|--3---------3---------3---------3----------------------------

								
better for her..		Let her...
|--3-3-3-3-3----0-0-0-0-0-0-0---3-3-3-3-3---------------------
|--3-3-3-3-3----2-2-2-2-2-2-2---3-3-3-3-3---------------------
|--0-0-0-0-0----2-2-2-2-2-2-2---0-0-0-0-0---------------------
|--0-0-0-0-0----2-2-2-2-2-2-2---0-0-0-0-0---------------------
|--2-2-2-2-2----0-0-0-0-0-0-0---2-2-2-2-3---------------------
|--3-3-3-3-3--------------------3-3-3-3-3---------------------

I don't mind, I feel i gotta get away     Repeat again till
|--2-2-3p2----3-3-3-3---0-0-0-0---2-2-3p2---3-3-3-3---0-0-0-0-
|--3-3-3-3----3-3-3-3---2-2-2-2---3-3-3-3---3-3-3-3---2-2-2-2-
|--2-2-2-2----0-0-0-0---2-2-2-2---2-2-2-2---0-0-0-0---2-2-2-2-
|--0-0-0-0----0-0-0-0---2-2-2-2---0-0-0-0---0-0-0-0---2-2-2-2-
|-------------2-2-2-2---0-0-0-0-------------2-2-2-2---0-0-0-0-
|-------------3-3-3-3-----------------------3-3-3-3-----------

where the kids are alright...
|--2-2-3p2----0-0-0-0---2-2-3p2---0-0-0-0---------------------
|--3-3-3-3----2-2-2-2---3-3-3-3---2-2-2-2---------------------
|--2-2-2-2----2-2-2-2---2-2-2-2---2-2-2-2---------------------
|--0-0-0-0----2-2-2-2---0-0-0-0---2-2-2-2---------------------
|-------------0-0-0-0-------------0-0-0-0---------------------
|-------------------------------------------------------------

At The end.
|--2----------------------------------------------------------
|--3----------------------------------------------------------
|--2----------------------------------------------------------
|--0----------------------------------------------------------
|-------------------------------------------------------------
|-------------------------------------------------------------
            
Submit corrections

comments powered by Disqus
↑ Back to top | Pearl Jam Tabs for The Kids Are Alright. Lyrics for acoustic guitar and electric guitar. Tablatures and chords are parodies/interpretations of the original songs. You may use it for private study, scholarship, research or language learning purposes only