» » »

Pearl Jam, Soldier Of Love Bass tabs (ver.1)

Artists:  A B C D E F G H I J K L M N O P Q R S T U V W X Y Z # 

Soldier Of Love Bass tabs (ver.1)

Pearl Jam Tabs
 Rating:
4/5 (4 votes)
Soldier Of Love  lessons Tabs too difficult? Try these video lessons and learn fast
                (2)
Intro
G|--------------------------------------------------------------------------|
D|--------------------------------------------------------------------------|
A|-7---------7-6-4---------4---7---------7-6-4---------4---7---------7-6-7--|
E|----7-7--7--------4-4--4---4----7-7--7--------4-4--4---4----7-7--7--------|

Verse 1
G|---------------------------------------------------------|
D|---------------------------------------------------------|
A|-4--4-4----4---4--4-4----4---7--7-7----7---7--7-7----7---| X2
E|---------4---4---------4---4---------7---7---------7---7-|

G|-----------------------------------------------------|
D|-----------------------------------------------------|
A|-4--4-4--4-4-----------------------------7--7-7--7-7-|
E|--------------2--2-2--2-2--0--0-0--0-5-7-------------|

Chorus 1
G|-------------------------------------------------------|
D|-------------------------------------------------------|
A|--------------3--3-3--3-3--4--4-4--2-2-4-2-------------|
E|-0--0-0--0-0-------------------------------0--0-0--0-0-|

G|------------------------------------------|
D|-2--2--2-2--------------------------------|
A|------------3--3-3--3-3--4-4-4--2---------|
E|----------------------------------4-2--0--|

Verse 2
G|---------------------------------------------------------|
D|---------------------------------------------------------|
A|-4--4-4----4---4--4-4----4---7--7-7----7---7--7-7----7---| X2
E|---------4---4---------4---4---------7---7---------7---7-|

G|----------------------------------------------------|
D|----------------------------------------------------|
A|-4--4-4--4-4----------------------------------------|
E|--------------2--2-2--2-2--0--0-0--0-0--0--0-0--0-0-|

Chorus 2
G|-------------------------------------------------------|
D|-------------------------------------------------------|
A|--------------3--3-3--3-3--4--4-4--2-2-4-2-------------|
E|-0--0-0--0-0-------------------------------0--0-0--0-0-|

G|------------------------------------------|
D|-2--2--2-2--------------------------------|
A|------------3--3-3--3-3--4-4-4--2---------|
E|----------------------------------4-2--0--|

Verse 3
G|---------------------------------------------------------|
D|---------------------------------------------------------|
A|-4--4-4----4---4--4-4----4---7--7-7----7---7--7-7----7---| X2
E|---------4---4---------4---4---------7---7---------7---7-|

G|-----------------------------------------------------|
D|-----------------------------------------------------|
A|-4--4-4--4-4-----------------------------7--7-7--7-7-|
E|--------------2--2-2--2-2--0--0-0--0-5-7-------------|

G|-------------------------------------------|
D|-------------------------------------------|
A|-4--4-4--4-4----------------------------7--|
E|--------------2--2-2--2-2--0--0-0--0-0-----|



Outro
G|------------------------------------------------|
D|------------------------------------------------|
A|-4-------4---4-------4---7-------7---7------7-6-| X3
E|----4--4---4----4--4---4----7--7---7---7--7-----|

G|---------------------------------------|
D|---------------------------------------|
A|-4-------4---4-------4---7-------7---7-|
E|----4--4---4----4--4---4----7--7---7---|
            
Submit corrections

comments powered by Disqus
↑ Back to top | Pearl Jam Bass for Soldier Of Love. Lyrics for acoustic guitar and electric guitar. Tablatures and chords are parodies/interpretations of the original songs. You may use it for private study, scholarship, research or language learning purposes only