>
 >
Severed Hand

Severed Hand Guitar Tabs

Pearl Jam - Severed Hand chords, tabs, tablatures, lyrics

Guitar lessons | Add/correct | Request | Top 50 tabs Artists:  A B C D E F G H I J K L M N O P Q R S T U V W X Y Z 0-9

Severed Hand Guitar Tabs – Pearl Jam

CD, Sheet music, Poster

Do you like Severed Hand? Share with your friends now
ChordsTabsUkulele
Pearl Jam


send questions and comments to:

burnout1108 (im)

or


================================
=This tab is for the 1st guitar=
================================
standard tuning

Intro

-|--14-14-14--14-14-14--14-14--15-15-15--15-15-15--15-15--15-15-15--15-15-15--|
-|--15-15-15--15-15-15--15-15--15-15-15--15-15-15--15-15--15-15-15--15-15-15--|
-|--14-14-14--14-14-14--14-14---0--0--0---0--0--0---0--0---0--0--0---0--0--0--|
-|---0--0--0---0--0--0---0--0---0--0--0---0--0--0---0--0---0--0--0---0--0--0--|
-|-----------------------------14-14-14--14-14-14--14-14--13-13-13--13-13-13--|
-|-----------------------------15-15-15--15-15-15--15-15----------------------|

-|--15-15--15-15-15--15-15-15--15-15--|
-|--15-15--15-15-15--15-15-15--15-15--|
-|---0--0---0-0--0---0--0--0---0--0--|
-|---0--0---0--0--0---0--0--0---0--0--|
-|--13-13--15-15-15--15-15-15--15-15--|   2x or 3x (if live)
-|------------------------------------|

-|--2-2-2--2-2-2--2-2-3-3-3--3-3-3--3-3--3-3-3--3-3-3--3-3--3-3-3--3-3-3--3-3-|
-|--3-3-3--3-3-3--3-3-3-3-3--3-3-3--3-3--3-3-3--3-3-3--3-3--3-3-3--3-3-3--3-3-|
-|--2-2-2--2-2-2--2-2-0-0-0--0-0-0--0-0--0-0-0--0-0-0--0-0--0-0-0--0-0-0--0-0-|
-|--0-0-0--0-0-0--0-0-0-0-0--0-0-0--0-0--x-x-x--x-x-x--x-x--x-x-x--x-x-x--x-x-|
-|--------------------2-2-2--2-2-2--2-2--1-1-1--1-1-1--1-1--3-3-3--3-3-3--3-3-|
-|--------------------3-3-3--3-3-3--3-3---------------------------------------| 3x


-|------main riff----------------------|
-|-------------------------------------|
-|-------------------------------5-----|
-|---5-/-7--7--7--7--x--x--x--x--5---5-|
-|---5-/-7--7--7--7--x--x--x--x--3---5-| 13x and go into prechorus
-|---3-/-5--5--5--5--x--x--x--x------3-|

-|-----------------------pre chorus---------------|
-|---3--------------------------------------------|
-|---0--------------------------------------------|
-|---4--------0---0-------3--3--3--3---3--3--3--3-|
-|---5--------0---0-------3--3--3--3---3--3--3--3-|
-|------------------------1--1--1--1---1--1--1--1-| 1x then do main riff 2x then repeat this

main riff 1x

chorus

-|----------------------------------------------------------------------------|
-|----------------------------------------------------------------------------|
-|----------------------------------------------------------------------------|
-|-----7-------7-------------5-----------------7-------7-------5----5---------|
-|-----5-------4-------------3-------5---------5-------4-------3----2---------|
-|-----------------------------------3----------------------------------------|

-|----------------------------------------------------------------------------|
-|----------------------------------------------------------------------------|
-|----------------------------------------------------------------------------|
-|--------------7-------7-----------5--------5--------------------------------|
-|--------------5-------4-----------3--------5------3-3-3-3--3-3-3-3--3-3-3-3-|
-|-------------------------------------------3------1-1-1-1--1-1-1-1--1-1-1-1-|

main riff 13x
pre chorus 1x

main riff 1x

pre chorus 1x

main riff 1x

chorus 1x

-|----------------------------|-------0----bridge------------3----------------|
-|----------------------------|-------1----------3-----------3----------------|
-|----------------------------|-------2----------2-----------0----------------|
-|----------------------------|-------2----------0-----------0----------------|
-|------2-2-2-2---2-2-2-2--2--|-------0----------x-----------2----------------|
-|------0-0-0-0---0-0-0-0--0--|------------------2-----------3----------------|

-|----0--------------0--------------------------------------------------------|
-|----0--------------1-------------3------------------------------------------|
-|----1--------------2-------------2------------------------------------------|
-|----2--------------2-------------0----------------3------------2------------|
-|----2--------------0-------------x----------------3------------2------------|
-|----0----------------------------2----------------1------------0------------|

-|----------0---------------------------3-------------------0-----------------|
-|----------1------------3--------------3-------------------0-----------------|
-|----------2------------2--------------0-------------------1-----------------|
-|----------2------------0--------------0-------------------2-----------------|
-|----------0------------x--------------2-------------------2-----------------|
-|-----------------------2--------------3-------------------0-----------------|

-|--1-------------0-----------------------------------------------------------|
-|--1-------------0-----------------------------------------------------------|
-|--2-------------1-----------------------------------------------------------|
-|--3-------------2---------------------------2-------------------------------|
-|--3-------------2----------3--3-3-3---------2-------------------------------|
-|--1--1-1-1------0--0--0----1--1-1-1---------0-------------------------------|

solo (played over main riff)

-|---------------------------------------------------5-----------5------------|
-|-------------------------------------------------5---5-8-8b10----8-5---5----|
-|---7b9r7p5----5h7v---7p5-7p5-----7b9r7p5---5-7b9---------------------7------|
-|-----------p7----------------7v----------7----------------------------------|
-|----------------------------------------------------------------------------|
-|----------------------------------------------------------------------------|

-|------------------10b12--b12-8v---------------------------------------------|
-|---------------------------------8-5----------------------------------------|
-|-7b9r7-5-7v---\----------------------7-5-7p5-\--5-4-5-4---------4-5v----7/--|
-|--------------------------------------------------------5v--4-5------7v-----|
-|----------------------------------------------------------------------------|
-|----------------------------------------------------------------------------|

-|--8-8-8--8-8-8\7---8-8-8--8-8-8\7------------8-8-8--8-8-8\7---8-8-8--8-8----|
-|--x-x-x--x-x-x-x---x-x-x--x-x-x-x------------x-x-x--x-x-x-x---x-x-x--x-x----|
-|--5-5-5--5-5-5\4---5-5-5--5-5-5\4------------5-5-5--5-5-5\4---5-5-5--5-5----|
-|-----------------------------------5--5-4h5---------------------------------|
-|----------------------------------------------------------------------------|
-|----------------------------------------------------------------------------|


-|--8\7-8-------19b20--19b20vv------------------------------------------------|
-|--x-x-x-----------------------x\--------------------------------------------|
-|--5\4-5---x/------------------x\---7b9r7p5----5-7-5---------5--7h9p7p5h7v---|
-|----------x/-------------------------------h7-------7v--5-7-----------------|
-|----------------------------------------------------------------------------|
-|----------------------------------------------------------------------------|


-|-----5--8--7h8p7---5--/12---------------------------------------------17-17-|
-|-5h8-------------8--------15vv--16r15-16r15-13v-13vv-13b15r13-10------17-17-|
-|-----------------------------------------------------------------12/--14-14-|
-|----------------------------------------------------------------------------|
-|----------------------------------------------------------------------------|
-|----------------------------------------------------------------------------|


-|-17-17-17-17-17--17---------------------------------------------------------|
-|-17-17-17-17-17--20b22vvv---x-\---------------------------------------------|
-|-14-14-14-14-14-------------x-\--------------5----------------5-------------|
-|----------------------------------5/7-7-7-7--x--5--5/7--7-7-7---5-----------|
-|----------------------------------x-x-x-x-x--3--x--x-x--x-x-x---------------|
-|----------------------------------3/5-5-5-5-----3--3/5--5-5-5---------------|


-|----------------------------------------------------------------------------|
-|----------------------------------------------------------------5-----------|
-|-------------------------------------------------------------/7---7-5-------|
-|--/7vv-5---------------------------5h7-5------------------------------7-5---|
-|----------7-6-5-3--5b6r5-3-5v------------7-6-5-3-5b6r5-3-5v-----------------|
-|----------------------------------------------------------------------------|

-|----------------------------------------------------------------------------|
-|-10b12r10-8---10vvv---------------0-----------------------------------------|
-|----------------------------------------------------------------------------|
-|----------------------------------------------------------------------------|
-|----------------------------------------------------------------------------|
-|----------------------------------------------------------------------------|


kick ass ending

-|----------------------------------------------------------------------------|
-|----------------------------------------------------------------------------|
-|-------4-4-4----------------------------------------------------------------|
-|---3-3-4-4-4---2---------------------------------2-\------------------------|
-|---3-3-2-2-2---2---------------------------------2-\------------------------|
-|---1-1---------0---------------------------------0--------------------------|





Comments


Popular Pearl Jam tabs & chords
Brain Of J 3 Bass Tabs
Deep Bass Tabs
Present Tense Bass Tabs
Wma Bass Tabs
Leatherman Chords
Rearviewmirror Chords
Daytime Dilemma Dangers Of Love Tabs
Immorality 1 Tabs
Poor Girl Tabs
World Wide Suicide 2 Tabs


Song lyrics



↑ Back to top | Tablatures and chords are parodies/interpretations of the original songs. You may use it for private study, scholarship, research or language learning purposes only
© 2014 AZChords.com Contact us | Privacy policy | DMCA | Add/correct tabs | Request tabs | Top 50 tabs