» » »

Satan's Bed Tabs (ver.2)

Artists:  A B C D E F G H I J K L M N O P Q R S T U V W X Y Z # 

Satan's Bed Tabs (ver.2)

Pearl Jam
Rating:
0/5 (0 votes)

Hard to play? Try these video lessons and learn fast.
                Satan's Bed by Pearl Jam
            tabbed out by dave eichenstein


intro; repeat until chorus                                                      
-------------------------------4--3--|------------------------------------------
-0--0--4--0--0--4--0--0--4--0--------|------------------------------------------
-2--2-----2--2-----2--2--------------|------------------------------------------
-2--2-----2--2-----2--2--------------|------------------------------------------
-2--2-----2--2-----2--2--------------|------------------------------------------
-------------------------------------|------------------------------------------
                                                                                

chorus; play as many times as they do                                           
----3-----5-----3-----5---------------------------------------------------------
-3--5--5--7--3--5--5--7---------------------------------------------------------
-5--5--7--7--5--5--7--7---------------------------------------------------------
-5--4--7--8--5--4--7--8---------------------------------------------------------
-5--5--7--5--5--5--7--5---------------------------------------------------------
-5--5--7--5--5--5--7--5---------------------------------------------------------
            
Hard to play? Try these video lessons and learn fast. | Correct




comments powered by Disqus
↑ Back to top | Tablatures and chords are parodies/interpretations of the original songs. You may use it for private study, scholarship, research or language learning purposes only