» » »

Running Out Of Time Tabs (ver.1)

Artists:  A B C D E F G H I J K L M N O P Q R S T U V W X Y Z # 

Running Out Of Time Tabs (ver.1)

Pearl Jam
Rating:
0/5 (0 votes)
Tabs too difficult? Try these video lessons and learn fast.
                
Ed Vedder & C Average
House of Blues 11.13.99
Running Out of Time
Dead Moon cover


intro/verse:


     E    G    D     Cadd9 G/B


-|--------3-----3p2----------|-
-|---0----3-----3------------|-
-|---1----0----2-------------|-
-|---2----0---0--------0-----|-
-|--2----2------------3--2-0-|-
-|-0----3--------------------|-


chorus:


   E     G     D    Cadd9 G/B


-|-0-0---3-3---2-2---3-3-0---|-
-|-0-0---3-3---3-3---3-3-3---|-
-|-1-1-0-0-0-0-2-2-0-0-0-0-0-|-
-|-2-2-0-0-0-0-0-0-0-2-2-0-0-|-
-|-2-2-0-2-2-0-----0-3-3-2-0-|-
-|-0-0---3-3-----------------|-


solo:


-|--------------------------------------------------|-
-|--------------------------------------------------|-
-|--------------------------------------------------|-
-|-7/9vv-9vv-9vv--7vv-7vv-7vv-5-4-4\2vv-2-2-0-------|- x2
-|--------------------------------------------3-2-0-|-
-|--------------------------------------------------|-



dead moon - running out of time


there ain't no mystery here, we're just trying to get by
there ain't no use in a plan that will only crowd up the sky
there ain't changin' there minds once they walk into the light
but baby, i know we're running out of time


run run, running out of time x3


i watch them come and go there's been so many i know
we used to feel like that, a long long time ago
we ain't really so different, we all walk the line
but baby, we too are running out of time


run run, running out of time x3


[solo]


we ain't the first to embrace, and we won't be the last
but every moment we stop it's already gone past
we been living a thrill in a blink of an eye
but baby, we too are running out of time


run run, running out of time x3
run run, running out of time x3
            
Tabs too difficult? Try these video lessons and learn fast.


comments powered by Disqus
↑ Back to top | Tablatures and chords are parodies/interpretations of the original songs. You may use it for private study, scholarship, research or language learning purposes only