>
 >
Romanza

Romanza Guitar Tabs

Pearl Jam - Romanza chords, tabs, tablatures, lyrics

Guitar lessons | Add/correct | Request | Top 50 tabs Artists:  A B C D E F G H I J K L M N O P Q R S T U V W X Y Z 0-9

Romanza Guitar Tabs – Pearl Jam

CD, Sheet music, Poster

Do you like Romanza? Share with your friends now
Tabs

ROMANZA (romance)
3/4 TIME
this is the song that eddie played as an opener to "betterman" on the 2000 binaural tour. 
 
Part One (key: Em) 
 
e-7-----7-----7-----|-7-----5-----3-----|-3-----2-----0-----|-0-----3-----7-----|
B---0-----0-----0---|---0-----0-----0---|---0-----0-----0---|---0-----0-----0---|
G-----0-----0-----0-|-----0-----0-----0-|-----0-----0-----0-|-----0-----0-----0-|
D-------------------|-------------------|-------------------|-------------------|
A-------------------|-------------------|-------------------|-------------------|
E-0-----------------|-0-----------------|-0-----------------|-0-----------------|
 

e-12-----12-----12-----|-12-----10-----8-----|-8-----7-----5-----|-5-----7-----8-----|
B----0------0------0---|----0------0-----0---|---5-----5-----5---|---5-----5-----5---|
G------0------0------0-|------0------0-----0-|-----5-----5-----5-|-----5-----5-----5-|
D----------------------|---------------------|-------------------|-------------------|
A----------------------|---------------------|-0-----------------|-0-----------------|
E-0--------------------|-0-------------------|-------------------|-------------------|
 

e-7-----8-----7-----|-11-----8-----7-----|-7-----5-----3-----|-3-----2-----0-----|
B---7-----7-----7---|----7-----7-----7---|---0-----0-----0---|---0-----0-----0---|
G-----8-----8-----8-|------8-----8-----8-|-----0-----0-----0-|-----0-----0-----0-|
D-------------------|--------------------|-------------------|-------------------|
A-------------------|--------------------|-------------------|-------------------|
E-7-----------------|-7------------------|-0-----------------|-0-----------------|
 

e-2-----2-----2-----|-2-----3-----2-----|-0-----0-----0-----|------0-------------|
B---0-----0-----0---|---0-----0-----0---|---0-----0-----0---|-----0--------------|
G-----2-----2-----2-|-----2-----2-----2-|-----0-----0-----0-|----0---------------|
D-------------------|-1-----------------|-2-----------------|---2----------------|
A-2-----------------|-------------------|-------2-----------|--2-----------------|
E-------------------|-------------------|-------------3-----|-0------------------|
 

Part Two (the part that eddie left out on the tour)
key: E major 
 

e-4-----4-----4-----|-4-----2-----0-----|-------------------|-------------------|
B---0-----0-----0---|---0-----0-----0---|-5-----4-----4-----|-4-----3-----4-----|
G-----1-----1-----1-|-----1-----1-----1-|---2-----2-----2---|---2-----2-----2---|
D-------------------|-------------------|-----4-----4-----4-|-----4-----4-----4-|
A-------------------|-------------------|-------------------|-------------------|
E-0-----------------|-0-----------------|-2-----------------|-2-----------------|
 

e-9-----9-----9-----|-9-----11-----9-----|-9-----7-----7-----|-7-----9-----11-----|
B---7-----7-----7---|---7------7-----7---|---9-----9-----9---|---9-----9------9---|
G-----8-----8-----8-|-----8------8-----8-|-----9-----9-----9-|-----9-----9------9-|
D-------------------|--------------------|-------------------|--------------------|
A-------------------|--------------------|-------------------|--------------------|
E-7-----------------|-7------------------|-0-----------------|-0------------------|
 

e-12-----12-----12-----|-12-----11-----10-----|-9-----9-----9-----|-9-----7-----5-----|
B----9------9------9---|----9------9------9---|---5-----5-----5---|---5-----5-----5---|
G------9------9------9-|------9------9------9-|-----6-----6-----6-|-----6-----6-----6-|
D----------------------|----------------------|-------------------|-------------------|
A----------------------|----------------------|-0-----------------|-0-----------------|
E-0--------------------|-0--------------------|-------------------|-------------------|
 

e-4-----4-----4-----|-4-----5-----2-----|-0-----0-----0-----|--0----------------------|
B---0-----0-----0---|---4-----4-----4---|---0-----0-----0---|--0----------------------|
G-----1-----1-----1-|-----2-----2-----2-|-----1-----1-----1-|--1----------------------|
D-------------------|-------------------|-2-----------------|-------------------------|
A-2-----------------|-2-----------------|-------2-----------|-------------------------|
E-------------------|-------------------|-------------4-----|--0----------------------|





Comments


Popular Pearl Jam tabs & chords
Dirty Frank 1 Bass Tabs
Last Kiss 4 String Bass Tabs
Wma Bass Tabs
Alive Chords
Throw Your Arms Around Me Chords
Crazy Mary Tabs
Do The Evolution Tabs
Lowlight Tabs
Porch Tabs
Jeremy Ukulele


Song lyrics



↑ Back to top | Tablatures and chords are parodies/interpretations of the original songs. You may use it for private study, scholarship, research or language learning purposes only
© 2014 AZChords.com Contact us | Privacy policy | DMCA | Add/correct tabs | Request tabs | Top 50 tabs