» » »

Rocking In The Free World Tabs (ver.1)

Artists:  A B C D E F G H I J K L M N O P Q R S T U V W X Y Z # 

Rocking In The Free World Tabs (ver.1)

Pearl Jam
Rating:
0/5 (0 votes)

Hard to play? Try these video lessons and learn fast.
                Pearl Jam and NEil Young - Rockin' in the Free World


Intro
|--------------------------------------|
|--------------------------------------|
|-3b------------77-x-555---------------|
|-----22222222--77-x-555---------------|
|-----22222222--55-x-333---------------|
|-----00000000-------------------------|
        p.m.

Drums start
|----------------------------------|
|----------------------------------|
|-----------77-x-555---------------|
|-22222222--77-x-555---------------|
|-22222222--55-x-333---------------|
|-00000000-------------------------|

Verse
|----------------------------------|
|----------------------------------|
|-----------77-x-555---------------|
|-22222222--77-x-555---------------|
|-22222222--55-x-333---------------|
|-00000000-------------------------|
    p.m.

Chorus
|------------------------------------|
|------------------------------------|
|---------777777--5555555--0---------|
|-55555---777777--5555555--0--2-22---|
|-55555---555555--3333333--0--2-22---|
|-33333-----------------------0-00---|

Bridge (repeat chord as necessary)
|---------|
|---------|
|--2------|
|--2------|
|--0------|
|---------|

This pattern continues throughout the song

Solo (rhythm)
|----------------------------------|
|----------------------------------|
|-----------77-x-555---------------|
|-22222222--77-x-555---------------|
|-22222222--55-x-333---------------|
|-00000000-------------------------|
    p.m.


The solo: just turn on the wah pedal and improvise to fill anything you
can't figure out. Real sweet solo...
            
Hard to play? Try these video lessons and learn fast. | Correct




comments powered by Disqus
↑ Back to top | Tablatures and chords are parodies/interpretations of the original songs. You may use it for private study, scholarship, research or language learning purposes only