>
 >
Red Mosquito Live

Red Mosquito Live Guitar Tabs

Pearl Jam - Red Mosquito Live chords, tabs, tablatures, lyrics

Guitar lessons | Add/correct | Request | Top 50 tabs Artists:  A B C D E F G H I J K L M N O P Q R S T U V W X Y Z 0-9

Red Mosquito Live Guitar Tabs – Pearl Jam

CD, Sheet music, Poster

Do you like Red Mosquito Live? Share with your friends now
Tabs

Tuning: standard

I'll give the solos a shot! I'm not sure what pattern to follow so
I'll go by sound. I'm guessing it's Dm pentatonic scale. Here it goes...

Live on Two legs version (the better one):
first solo (0:05)
e|-10\------------------------------|----------------------------------|
B|-10\--/8~~~--8~-8~-8b~-8~-6-------|---pb8r6--pb8r6---8-6---6---------|
G|-10\------------------------7~-7\-|-/7------7------7-----7---7~-7\0--|
D|----------------------------------|----------------------------------|
A|----------------------------------|----------------------------------|
E|----------------------------------|----------------------------------|

e|----------------------------------|----------------------------------|
B|----13-15~~15~15~13--13b--13b-13b-|----------------------------10\0--|
G|-/14---------------14---14--14----|-14-12-12\10--12\10--12-10--10\0--|
D|----------------------------------|------------12-----12-----12------|
A|----------------------------------|----------------------------------|
E|----------------------------------|----------------------------------|

e|-------10-------------------------|----------------------------------------|
B|-/10-10--10-13/15~15~~-15p13------|---13--------13-------------------------|
G|----------------------------14-12-|/14--14-14-14t-14p12-10--10-10h12-10\0--|
D|----------------------------------|-----------------------12---------------|
A|----------------------------------|----------------------------------------|
E|----------------------------------|----------------------------------------|
                    <--very fast trill/trem.-->(0:28-------------------------|
second solo: (0:45)
e|--------------------------------------------|
B|-----------6---------8\6---8\6---8-6---6\0--|
G|-7~~-7-5-----7~-7\-------7-----7-----7------|
D|---------7---------7------------------------|
A|--------------------------------------------|
E|--------------------------------------------|
					(0:53)
third solo: (1:22)
e|----------------------------------|--------------------------------|
B|-15~(15)15~(15)15~13--13b-13b-13b-|--------------------------------|
G|--------------------14--14--14----|-14-12-12\--12\--12\--12\--12\--|
D|----------------------------------|----------17\--17\--17\--17\----|
A|----------------------------------|--------------------------------|
E|----------------------------------|--------------------------------|
					    
e|------------------------------------|------------------------------|
B|------------------------------------|------------------------------|
G|-12\10--12\10--10b-----------10~----|--12p10-10---------(10)10~\0--|
D|------12-----12---12-10-10~12---12\-|-/12------12-10-12------------|
A|------------------------------------|------------------------------|
E|------------------------------------|------------------------------|
								(1:37)
fourth solo: (2:30)
e|----------------------------------------------------|
B|-15~-15-13-------------10-------------13------------|
G|-----------14-12-12b14-12b14-14t-12-14--14-12-14----|
D|----------------------------------------------------|
A|----------------------------------------------------|
E|----------------------------------------------------|

e|----------------------------------------------------|
B|-----------------13---------------------------------|
G|-14-14-14t-12\-14--14-12-14\12-10--10-10b12-10------|
D|---------------------------------12------------12\--|
A|----------------------------------------------------|
E|----------------------------------------------------|
  ||
e|----------------------------------------------------|
B|----------------------------------------------------|
G|----------------------------------13b-12-10-12-10~--|
D|-12-12-0-------10--10-12-12~10-12-------------------|
A|---------10-12---12---------------------------------|
E|----------------------------------------------------|

e|----------------------------------------------------|
B|------------10-----10-------------------------------|
G|-10-12-12b14--12b14--12fbr12-10--10-12-16\-14\-12\--|
D|-------------------------------12-------------------|
A|----------------------------------------------------|
E|----------------------------------------------------|

e|----------------------------------------------------|
B|-15~(15)15~15~(15)15~15~13~--13b--13b-13b-13b-13----|
G|---------------------------14---14--14--14--14--14--|
D|----------------------------------------------------|
A|----------------------------------------------------|
E|----------------------------------------------------|

e|-------------------------10---13p10--13p10--10------|
B|-----------------------10--10------10-----10--10----|
G|-12-12-10----10\0-12/14-------------------------10--|
D|----------12----------------------------------------|
A|----------------------------------------------------|
E|----------------------------------------------------|

e|-13p10-------10---------------10--------------------|
B|------10-13fb--13-10------10--10-10-10----10-10-10--|
G|--------------------12-10-12fb---12-10----10-12-10--|
D|---------------------------------------12-------0---|
A|----------------------------------------------------|
E|----------------------------------------------------|
						(3:00)
 h = hammer-on
 p = pull-off
 / = slide up
 \ = slide down
 ~ = vibrato
 b = bend (1/4 if unspecified)
fb = full bend (1step)
pb = prebend (bend before striking)
 r = release bend

 This is my first official post. It sounds okay but I know
it needs work. I hope that someone will fix this solo up
and put this all together into one linear format with
guitars 1, 2 and 3 so that others can enjoy this song.





Comments


Popular Pearl Jam tabs & chords
Rats Bass Tabs
Rearviewmirror Bass Tabs
Tremor Christ Bass Tabs
Lukin' Chords
Sirens 2 Chords
Even Flow (Intro) Tabs
Love Reign Oer Me Tabs
My Way Tabs
Of The Girl Tabs
Of The Girl 1 Tabs


Song lyrics



↑ Back to top | Tablatures and chords are parodies/interpretations of the original songs. You may use it for private study, scholarship, research or language learning purposes only
© 2014 AZChords.com Contact us | Privacy policy | DMCA | Add/correct tabs | Request tabs | Top 50 tabs