» » »

Pearl Jam, Red Mosquito Tabs (ver.4)

Artists:  A B C D E F G H I J K L M N O P Q R S T U V W X Y Z # 

Red Mosquito Tabs (ver.4)

Pearl Jam Tabs
Rating:
0/5 (0 votes)
Red Mosquito lessons Tabs too difficult? Try these video lessons and learn fast
                mike mccready    guiter solo

0:00~
E------------------------------------c------------------------------------------------------------------------s--|
B-----6--6--6-----6--6--6-----6--7~~-------------6--8--------6--8--6----6------6-----6--8--6--8------------------|x
G------------------------------------------------5--7--------------------------7------------7--------------------|
D----------------------------------------------------------------------------------------------------------------|
A----------------------------------------------------------------------------------------------------------------|
E----------------------------------------------------------------------------------------------------------------|


E--------------10--8----------------------------------------------------------------------------------------------|
B-----8--10-----------10----8--6-----6--8--6-----s----------------------------------------------------------------|
G--------------------------------------7------------7~~-----------------------------------------------------------|
D-----------------------------------------------------------------------5--5--5--5--3------------5--5--3----------|
A------------------------------------------------------------------------------------------5-----5-------------5--|
E-----------------------------------------------------------------------------------------------------------------|


E--------------------------5-----------------10~~--|
B-------------------6--8-----8--6--8--6------------|
G-----------5--7-----------------------------------|
D----5--7------------------------------------------|
A--------------------------------------------------|
E--------------------------------------------------|


0:43                                                                                                 1:15
E---------c------------------------------------------------------------------------------------|
B------8~~---6-------------8--6---------6--8--6-----------------------------------6--5---------|
G------------------7----------------7--5--------------7--5--7-------------------------------5--|
D----------------------------------------------------------------------------------------------|
A----------------------------------------------------------------------------------------------|
E----------------------------------------------------------------------------------------------|


E--------c-----------------------------c-----------------------c---13--------13--15~~--|
B-----8~~6----------6------------8~~6---------------15~~---------15--------------------|
G--------------7----------7-----------------7------------------------------------------|
D--------------------------------------------------------------------------------------|
A--------------------------------------------------------------------------------------|
E--------------------------------------------------------------------------------------|


E----------------------------------------------------|
B----------6--8--6--------------------------6--8--6--|
G--5--7-------------7--5--7--------5--7--------------|
D----------------------------------------------------|
A----------------------------------------------------|
E----------------------------------------------------|

2:10
E-----------------------------------------------------------------------------------------|
B----------10-10-----------------5--5---------------8--8---------------3--3---------------|
G------10--------10----------5---------5---------8--------8---------3-------3-------------|
D--10----------------10---5---------------5---8--------------8---3-------------3----10~~--|
A-----------------------------------------------------------------------------------------|
E-----------------------------------------------------------------------------------------|


E-----------------------------------------|
B---6--5-------------------6--5-----8~~~--|
G-----------5~~~--------------------------|
D-----------------------------------------|
A-----------------------------------------|
E-----------------------------------------|
            
Submit corrections

comments powered by Disqus
↑ Back to top | Pearl Jam Tabs for Red Mosquito. Lyrics for acoustic guitar and electric guitar. Tablatures and chords are parodies/interpretations of the original songs. You may use it for private study, scholarship, research or language learning purposes only