» » »

Pearl Jam, Redemption Tabs (ver.1)

Artists:  A B C D E F G H I J K L M N O P Q R S T U V W X Y Z # 

Redemption Tabs (ver.1)

Pearl Jam Tabs
Rating:
0/5 (0 votes)
Redemption lessons Tabs too difficult? Try these video lessons and learn fast
                Pearl Jam played this live once and theyre one of my favs so here goes...

|-----------------------------------------|
|-----------------------------------------|
|-----------------------------------------|
|--------------2-0-----------0------------|
|------0-2---3-----2-----0-2----2-3-0-----|
|---3------3----------3---------------3---|

slight change up...

|-----------------------------------------|
|-----------------------------------------|
|-----------------------------------------|
|--------------2-0------------------------|
|------0-2---3-----2-----0-2----3-2-0-----|
|---3------3----------3------3---------3--|

once you get the rythm down it sounds pretty sweet

rate this tab!
            

comments powered by Disqus
↑ Back to top | Pearl Jam Tabs for Redemption. Lyrics for acoustic guitar and electric guitar. Tablatures and chords are parodies/interpretations of the original songs. You may use it for private study, scholarship, research or language learning purposes only