>
 >
Once 1

Once 1 Guitar Tabs

Pearl Jam - Once 1 chords, tabs, tablatures, lyrics

Guitar lessons | Add/correct | Request | Top 50 tabs Artists:  A B C D E F G H I J K L M N O P Q R S T U V W X Y Z 0-9

Once 1 Guitar Tabs – Pearl Jam

CD, Sheet music, Poster

Do you like Once 1? Share with your friends now
Bass TabsChordsTabsTabs v2Tabs v3
Once -- Pearl Jam

Intro (played with heavy distortion)

   ---3-----3--3---3---1-----1--1---1---1--1--1--1--1--1--0-----0--0---1---1--
   ---3-----3--3---3---3-----3--3---3---3--3--3--3--3--3--3-----3--3---3---3--
   ---2-----2--2---2---2-----2--2---2---2--2--2--2--2--2--2-----2--2---2---2--
   ---0-----0--0---0---0-----0--0---0---0--0--0--0--0--0--0-----0--0---0---0--
   ---------------------------------------------------------------------------
   ---------------------------------------------------------------------------

   ---3---3---1--1--1--1--1--1-----1----1----1----1---------------------
   ---3---3---3--3--3--3--3--3-----3----3----3----3---------------------
   ---0---0---2--2--2--2--2--2-----2----2----2----2---------------------
   ---0---0---0--0--0--0--0--0-----0----0----0----0---------------------
   -----------------------------------------------------5--3-/-5-------

   --------------------------------------------------------------------------
   --------------------------------------------------------------------------
   ---0-h-2----2---2-h-3-p-2-h-3-/-7--3-h-2---3-p-2-------0--------------
   ----------------------------------------------------2--------------------
   --------------------------------------------------------------------------
   --------------------------------------------------------------------------
   (repeat the last line of tab above three times)
   ---------------------------------------------------------------------
   ---------------------------------------------------------------------
   ---2---2------2------2---2------2---2---5---5---2---2------------
   -------------------------------------------------------------------
   --------------------------------------------------------------------
   ----------------------------------------------------------------------

Verse
   ----------------------------
   ---0-h-2-p-0-h-3----2-h-3-p-2--
   ------------------------------
   -------------------------------
   -------------------------------
   -------------------------------

   (repeat the following throught the rest of the verse)
   ----------------------------------------------------------------
   -----------------------------------------------------------------
   ---0-h-2-p-0-h-3----2-h-3-p-2---x--x--x--2---9---x--x--------
   ----------------------------------------------------------------
   -----------------------------------------------------------------
   -----------------------------------------------------------------

Pre-Chorus'
      A5
   -----------------------------------------------------------------
   -----------------------------------------------------------------
   ---2----------------------------2-h-3-p-2-h-3-p-2-h-3--x--x------
   -----------------------------------------------------------------
   ---0-------------------------------------------------------------
   -----------------------------------------------------------------
(A5 is sustained in the background by guitar 2.  This fill is repeated 
 throughout the pre-chorus. "Back street lover on the side of the ....")

   --------------------------------
   --------------------------------
   --3-------------------3---3---0-
   --3-------------------3---3---0-
   --1-------------------1---1-----
   --------------------------------

Chorus
  ---3----3---3---3-------1------1----1----1---1----1------0-----0----
  ---3----3---3---3-------3------3----3----3---3----3------3-----3----
  ---0----0---0---0-------0------0----3----3---3----3------3-----3----
  ---0----------------------------------------------------------------
  --------------------------------------------------------------------
  --------------------------------------------------------------------

  ---3----3---3----3------1----1----1----1--1----1-------0-----0------
  ---3----3---3----3------3----3----3----3--3----3-------3-----3------
  ---0----0---0----0------0----0----3----3--3----3-------3-----3------
  --------------------------------------------------------------------
  --------------------------------------------------------------------
  ------------------------------------------------------------------------------
(repeat the above through the chorus)

solo

Outro
  ---3------3--3----------------------------0----0--0-----0----0--0--0--0--0--0-  ---3------3--3----------------------------6----6--6--/--8----8--8--8--8--8--8-
  ---0------0--0-----6------5-------0-------7----7--7--/--9----9--9--9--9--9--9-
  ---0------0--0--------------------0------------------------------------------
  -----------------------------------------------------------------------------
  -----------------------------------------------------------------------------
(repeat twice)
  ---------------------------------------------------------------------
  ---3-----3--3--8-/-10------8-------------3------3--3--8/10-----------
  ---0-----0--0---------------------0------0------0--0----------------0-
  ---0-----0--0---------------------0------0------0--0----------------0-
  ----------------------------------------------------------------------
  ----------------------------------------------------------------------

  -----------------------------------------------------------------------
  (pause while Eddie sings yeah,yeah,yeah,yeah)

   -------------------------------------------0---0---0--------0------3---
   -------------------------------------------6---6---5--------5------3---
   -------------------------------------------7---7---5--------5------0---
   -------------------------------------------------------------------0---
   -------------------------------------------------------------------2---
   -------------------------------------------------------------------3---

i admit it...what's to say
i'll relive it...without pain
backstreet lover on the side 
of the road
i got a bomb in my tmeple
that is gonna explode
i got a .16 gauge buried      
under my clothes...i play.
once upon a time i could control myself
once upon a time i could lose myself
oh try and mimic..what's insane
i am in it...where do i stand?
indian summer i hate the heat
i got a backstreet lover on the passenger seat
i got my hand in my pocket
so determined
discreet...i pray.

once upon a time i could control myself
once upon a time i could lose myself
once upon a time i could love myself
once upon a time i could love myself

once
once
once





Comments


Popular Pearl Jam tabs & chords
Last Kiss 2 Bass Tabs
Nothingman Bass Tabs
Of The Girl 1 Bass Tabs
Pry To Bass Tabs
Breath Chords
Corduroy 4 Tabs
Inside Job 1 Tabs
Jeremy 3 Tabs
Red Mosquito Tabs
Save You Tabs


Song lyrics



↑ Back to top | Tablatures and chords are parodies/interpretations of the original songs. You may use it for private study, scholarship, research or language learning purposes only
© 2014 AZChords.com Contact us | Privacy policy | DMCA | Add/correct tabs | Request tabs | Top 50 tabs