» » »

Ole Tabs (ver.1)

Artists:  A B C D E F G H I J K L M N O P Q R S T U V W X Y Z # 

Ole Tabs (ver.1)

Pearl Jam
Rating:
0/5 (0 votes)

Hard to play? Try these video lessons and learn fast.
                First two lines show different ways of playing the main riff (Stone plays G1,
Mike G2). Rest of tab is mostly just Stone's part.

-|-----------------------|----------------------------------------------------|
-|-----------------------|---2------------------------------------------------|
-|----4-4-4--1-1-1-1-----|---2------------------------------------------------|
-|----5-5-5--2-2-2-2-----|---2------------------------------------------------|
-|----5-5-5--2-2-2-2-----|---0------------------------------------------------|
-|----3-3-3--0-0-0-0-----|----------------------------------------------------|
    G1 (Stone)        3x

-|-----------------------|--------3-------------------------------------------|
-|-----------------------|--------2-------------------------------------------|
-|-----------------------|---2----2-------------------------------------------|
-|----0------------------|---2------------------------------------------------|
-|----x------2-----------|---0------------------------------------------------|
-|----3------0-----------|----------------------------------------------------|
    G2 (Mike)         3x

-|----------------------------------------------------------------------------|
-|----------------------------------------------------------------------------|
-|----------------------------------------------------------------------------|
-|--------------5---5--5----2---2---2---2-----5-5-5-2---2---2----2----5-5-5-2-|
-|--------------5---5--5----2---2---2---2-----5-5-5-2---2---2----2----5-5-5-2-|
-|--------------3---3--3----0---0---0---0-----3-3-3-0---0---0----0----3-3-3-0-|
    Oh what you say what you say what you gonna say when your life ends?

-|---------------------------------------3------------------------------------|
-|---------------------------------------2------------------------------------|
-|---------------------------------------2------------------------------------|
-|--2---2---2----2-----2-2-2-2--2-2-2-2--2----------5-5-5-2---2--2--2---2-----|
-|--2---2---2----2-----0-0-0-0--0-0-0-0--0----------5-5-5-2---2--2--2---2-----|
-|--0---0---0----0----------------------------------3-3-3-0---0--0--0---0-----|
   What you gonna say? Ole!                  Ah what you say, what you say,

-|-------------------------------------------------------------------------3--|
-|-------------------------------------------------------------------------2--|
-|-------------------------------------------------------2-2-2-2--2-2-2-2--2--|
-|---5-5-5--2----2----2----2----2----5--5--5--2-2-2-2--2-2-2-2-2--2-2-2-2--2--|
-|---5-5-5--2----2----2----2----2----5--5--5--2-2-2-2--2-0-0-0-0--0-0-0-0--0--|
-|---3-3-3--0----0----0----0----0----3--3--3--0-0-0-0--0----------------------|
  what can you say of importance? What you gonna say but Ole?

-|----------------------------------------------------------------------------|
-|----------------------------------------------------------------------------|
-|----------------------------------------------------------------------------|
-|-----5-5-5--2---2--2---2---2------5--5--5--2---2---2----2----2-----------5--|
-|-----5-5-5--2---2--2---2---2------5--5--5--2---2---2----2----2-----------5--|
-|-----3-3-3--0---0--0---0---0------3--3--3--0---0---0----0----0-----------3--|
  Ah, what you say, what you say when there's too much you can't breathe in?

-|----------------------------------------------------------------------------|
-|----------------------------------------------------------------------------|
-|------------------------2---------------------------------------------------|
-|--5--5--2--2--2--2--2---2-----------------------7-----9---------------------|
-|--5--5--2--2--2--2--2---0-----------------------5-----7----9---10-----------|
-|--3--3--0--0--0--0--0--------------------------------------7---8------------|
   What you gonna say but Ole?

-|----------------------------------------------------------------------------|
-|----------------------------------------------------------------------------|
-|----------------------------------------------------------------------------|
-|---10--10--10--10--10--10--10--10---5-5-5-5--5-5-5-5--5-7--7-7-7-7--7-7-7---|
-|---10--10--10--10--10--10--10--10---5-5-5-5--5-5-5-5--5-7--7-7-7-7--7-7-7---|
-|---8---8---8---8---8---8---8---8----3-3-3-3--3-3-3-3--3-5--5-5-5-5--5-5-5---|
     I           ain't       got      words for what goes on.

-|----------------------------------------------------------------------------|
-|----------------------------------------------------------------------------|
-|----------------------------------------------------------------------------|
-|--10--10--10--10--10--10--10--10---5-5-5-5--5-5-5-5--5-7--7-7-7-7--7-7-7----|
-|--10--10--10--10--10--10--10--10---5-5-5-5--5-5-5-5--5-7--7-7-7-7--7-7-7----|
-|--8---8---8---8---8---8---8---8----3-3-3-3--3-3-3-3--3-5--5-5-5-5--5-5-5----|
    I           ain't       got      words for all that's wrong

-|----------------------------------------------------------------------------|
-|----------------------------------------------------------------------------|
-|----------------------------------------10-12---------11-13---10-10-10-10---|
-|--7--9----------------------------------10-12--10-12--11-13---10-10-10-10---|
-|--5--7--9--10----------------------------8-10--10-12---9-11----8--8--8--8---|
-|--------7--8------------------------------------8-10------------------------|
                What do you say? Meditate                       mediate Ole!

-|----------------------------------------------------------------------------|
-|----------------------------------------------------------------------------|
-|----------------------------------------------------------------------------|
-|-5-5-5--2---2---2--2---2---5-5-5-2--2--2--2--2------5-5-5-2---2--2---2---2--|
-|-5-5-5--2---2---2--2---2---5-5-5-2--2--2--2--2------5-5-5-2---2--2---2---2--|
-|-3-3-3--0---0---0--0---0---3-3-3-0--0--0--0--0------3-3-3-0---0--0---0---0--|
      What you say when they give the guy the go-ahead? What you gonna say?

-|-------------------3--------------------------------------------------------|
-|-------------------2--------------------------------------------------------|
-|-2-2-2-2--2-2-2-2--2--------------------------------------------------------|
-|-2-2-2-2--2-2-2-2--2----5-5-5--2--2--2--2--2------5--5--5--2--2---2---2---2-|
-|-0-0-0-0--0-0-0-0--0----5-5-5--2--2--2--2--2------5--5--5--2--2---2---2---2-|
-|------------------------3-3-3--0--0--0--0--0------3--3--3--0--0---0---0---0-|
   Ole!                  What you say, what you say when your spitting up on

-|----------------------------------------------------------------------------|
-|----------------------------------------------------------------------------|
-|-------------------------------2-2-2-2--2-2-2-2-----------------------------|
-|-------5-5-5-2--2--2--2---2----2-2-2-2--2-2-2-2-----5--5-5-2---2---2---2--2-|
-|-------5-5-5-2--2--2--2---2----0-0-0-0--0-0-0-0-----5--5-5-2---2---2---2--2-|
-|-------3-3-3-0--0--0--0---0-------------------------3--3-3-0---0---0---0--0-|
   your bed? What you gonna say? Ole!             What you say, what you

-|----------------------------------------------------------------------------|
-|----------------------------------------------------------------------------|
-|-----------------------------------------------------------------2-2-2-2----|
-|--2------5--5--5--2---2---2---2---2--------5--5--2---2--2---2--2-2-2-2-2----|
-|--2------5--5--5--2---2---2---2---2--------5--5--2---2--2---2--2-0-0-0-0----|
-|--0------3--3--3--0---0---0---0---0--------3--3--0---0--0---0--0------------|
   say when you've had enough of knuckleheads? What you gonna say? Ole!

-|----------------------------------------------------------------------------|
-|----------------------------------------------------------------------------|
-|-2-2-2-2--------------------------------------------------------------------|
-|-2-2-2-2-5--5--5--2---2---2--2--2-----5--5---5---2-----2-2--2----2----5--5--|
-|-0-0-0-0-5--5--5--2---2---2--2--2-----5--5---5---2-----2-2--2----2----5--5--|
-|---------3--3--3--0---0---0--0--0-----3--3---3---0-----0-0--0----0----3--3--|
           What you say, now, what you say when you've seen enough bloodshed?

-|----------------------------------------------------------------------------|
-|----------------------------------------------------------------------------|
-|---------------------2------------------------------------------------------|
-|-5--2---2-2--2-2-----2-------7--9------------10--10--10--10--10--10--10--10-|
-|-5--2---2-2--2-2-----0-------5--7----9--10---10--10--10--10--10--10--10--10-|
-|-3--0---0-0--0-0---------------------7---8----8---8---8---8---8---8---8---8-|
   What you gonna say? Stop                    I     still       can't

-|----------------------------------------------------------------------------|
-|----------------------------------------------------------------------------|
-|----------------------------------------------------------------------------|
-|--5-5-5-5--5-5-5-5--7-7-7-7--7-7-7----10--10--10--10--10--10--10--10--10----|
-|--5-5-5-5--5-5-5-5--7-7-7-7--7-7-7----10--10--10--10--10--10--10--10--10----|
-|--3-3-3-3--3-3-3-3--5-5-5-5--5-5-5-----8---8---8---8---8---8---8---8---8----|
    help but wunder   why                I'm         feeling

-|----------------------------------------------------------------------------|
-|----------------------------------------------------------------------------|
-|----------------------------------------------------------------------------|
-|--5-5-5-5--5-5-5-5-7-7-7-7---7-7-7-7----7--9--------------------------------|
-|--5-5-5-5--5-5-5-5-7-7-7-7---7-7-7-7----5--7---9--10------------------------|
-|--3-3-3-3--3-3-3-3-5-5-5-5---5-5-5-5-----------7---8------------------------|
    laughed a by the sky                               What do you say,

-|----------------------------------------------------------------------------|
-|----------------------------------------------------------------------------|
-|------------10--12----------11--13---10---10--10-10-10--------2-------------|
-|------------10--12--10--12--11--13---10---10--10-10-10--------2-------------|
-|-------------8--10--10--12---9--11----8----8---8--8--8--------0-------------|
-|---------------------8--10--------------------------------------------------|
   meditate?                             Meditate Ole!

-|----------------------------------------------------------12----------12----|
-|--15b17-b19--------------------------------------------12----15-12-15-------|
-|------------------------14-12-14b16vv-----------12-14b----------------------|
-|--------------x--\---------------------12-12h14-----------------------------|
-|--------------x--\----------------------------------------------------------|
-|--------------x--\--0-------------------------------------------------------|
   solo

-|--15b-\--5b6-6-6-r5-3-------------17b18-17-15----15-----------------12------|
-|----------------------5-3---------------------17----17-17b18-----12---------|
-|--------------------------5-4-2\-----------------------------14b------------|
-|----------------------------------------------------------------------------|
-|----------------------------------------------------------------------------|
-|----------------------------------------------------------------------------|


-|------------------------------|-|-------------------------------------------|
-|--15r12-15r12-15-15-15vvv-/---|-|-------------------------------------------|
-|------------------------------|-|-------------------------------------------|
-|------------------------------|-|-------------------------------------------|
-|------------------------------|-|-------------------------------------------|
-|------------------------------|-|-------------------------------------------|


-|----------------------------------------------------------------------------|
-|----------------------------------------------------------------------------|
-|----------------------------------------------------------------------------|
-|----------------------------------------------------------------------------|
-|--------------0-0---3-3-3-2-2---0-0-----------------0-0---3-3-3-2-2---0-0---|
-|3-3-3-2-2-2-0-----0-----------3-----0-3-3-3-2-2-2-0-----0-----------3-----0-|
   Stone's riff under solo

-|----------------------------------------------------------|-----------------|
-|----------------------------------------------------------|-----------------|
-|--2--2--2--------2--2--2----------------------------------|-----------------|
-|--2--2--2---2----2--2--2---2---5--5--5---2---5--5--5---2--|--5--7-----------|
-|--0--0--0---2----0--0--0---2---5--5--5---2---5--5--5---2--|--3--5---7--8----|
-|------------0--------------0---3--3--3---0---3--3--3---0--|---------5--6----|
    End                                                 3x
            
Hard to play? Try these video lessons and learn fast. | Correct




comments powered by Disqus
↑ Back to top | Tablatures and chords are parodies/interpretations of the original songs. You may use it for private study, scholarship, research or language learning purposes only