» » »

Pearl Jam, Not For You Tabs (ver.1)

Artists:  A B C D E F G H I J K L M N O P Q R S T U V W X Y Z # 

Not For You Tabs (ver.1)

Pearl Jam Tabs
Rating:
0/5 (0 votes)
Not For You lessons Tabs too difficult? Try these video lessons and learn fast
                : I sat down for a while and drew up my thoughts on paper before I put them
: on the computer.  This is what I came up with.  I think it's pretty damn
: close, but you can improvise:

: Solo 'Not for You'
: -------------------------------------------------------------------------
: -------------------------------------------------------------------------
: -------------------------------------------------------------------------
: -3--5--7--5--2--0--------3--5--7--5--2--------2--3--5--7--5--2--0--------
: -------------------3--2-----------------2--3-----------------------3--2--
: -------------------------------------------------------------------------

: ----------------[---0-0-0-0-0-0-------12--------]  Repeat last
: ----------------[---0-0-0-0-0-0----------12-----]  section once.
: ----------------[---1-1-1-1-1-1---/14-----------]
: -3--5--7--10--9-[----------------------------14-]
: ----------------[-------------------------------]
: ----------------[-------------------------------]

: --------------------------------12------------------------------------------- : -12---12--12---12----------12------15--12------------------------------------
: -14b--14b-14b--14b----/14--14b-------------14p12-------14--12--11--9--11--12-
: --------------------------------------------------14-------------------------
: -----------------------------------------------------------------------------
: -----------------------------------------------------------------------------

: --------------0-----------------   END SOLO
: --------------------------------
: -14--16-------------------------
: ----------------------//--\\----
: ----------------------//--\\----
: --------------------------------

: Some Beginning Stuff:
: --0-----0--------------;-------------------;---0-----0-----
: --0--0--0--------------;--12---12-12-12----;---0-----0-----
: --1--3--4--------------;--14---14-14-14h16-;---7-x-x-7-----
: --2--4--5--------------;-------------------;---------------
: --2--4--5--------------;-------------------;---------------
: --0--0--0--0-0--0-0-0--;-------------------;---------------
            
Submit corrections

comments powered by Disqus
↑ Back to top | Pearl Jam Tabs for Not For You. Lyrics for acoustic guitar and electric guitar. Tablatures and chords are parodies/interpretations of the original songs. You may use it for private study, scholarship, research or language learning purposes only