>
 >
No Code

No Code Guitar Tabs

Pearl Jam - No Code chords, tabs, tablatures, lyrics

Guitar lessons | Add/correct | Request | Top 50 tabs Artists:  A B C D E F G H I J K L M N O P Q R S T U V W X Y Z 0-9

No Code Guitar Tabs – Pearl Jam

CD, Sheet music, Poster

Do you like No Code? Share with your friends now
Tabs
Am (strum Am a few times)
E|---------0-          
B|---------1-          
G|---------2- x 2      
D|-----3-2-2-          
A|---3-----0-          
E|-1---------          

then
           F C C
E|---------1-0-0-
B|---------1-1-1-
G|-------2-2-0-0-
D|-----3---3-2-2-
A|---3-----3-3-3-
E|-1-------1-----

Then the rest of the song is basically just a combination
or F, C and Am chords. A classic "3 chord"-er.

           
There's also this little bit, or something similar.

E|--------------|------|--------------|-----------|
B|--------------|------|--------------|-----------|
G|--------------|------|--------------|-2-0-------|
D|-3-2-3-2-3-2--|-0--2-|-3-2-3-2-3-2--|-----0-0-2-|
A|-------------3|------|-------------3|-----------|
E|--------------|------|--------------|-----------|

Habit

Part One - A5 D5 G#5
SEE IT HAPPEN TO A COUPLE OF FRIENDS
SEE IT HAPPEN AND IT REMINDS ME OF THEM
TAKE IT OUT, FOR WHAT'S AN OBVIOUS FALL
JUST TO SEE WHAT ALL THE FUSS IS ABOUT


Part Two 
------------------------------------
------------------------------------
--3-7-3-3-7-3-7---------------------
------------------------------------
------------------------------------
------------------------------------
I'VE TOLD YOU WHY, DON'T YOU WAIT
I'VE TOLD YOU WHY...


Part Three - A5 D5 G#5
I GOT A HABIT AS I SING TO YOU
I'VE GOT A HABIT AND IT'S LONG OVERDUE
I DON'T WANT A HABIT, LIKE I DON'T WANT A FRIEND
I'M SO HAPPY WITH MY RIGHTOUS SELF


Part Four 
------------------------------------
------------------------------------
--3-7-3-3-7-3-7---------------------
------------------------------------
------------------------------------
------------------------------------
I'VE TOLD YOU WHY, DON'T YOU WAIT
I'VE TOLD YOU WHY...


Part Five - F5 E5 D5
NEVER THOUGHT YOU'D EVER... (3X)
NEVER THOUGHT YOU... (2X)
NEVER THOUGHT YOU'D EVER... (3X)
NEVER THOUGHT YOU...


Part Six
F5 - NEVER THOUGHT YOU'D EVER... 
E5 D5 - NEVER THOUGHT YOU'D EVER...
F5 - NEVER THOUGHT YOU'D EVER...
E5 D5 - NEVER THOUGHT YOU'D EVER...
F5 - NEVER THOUGHT YOU'D EVER... - E5 D5 - F5


Part Seven - F5 E5 D5
NEVER THOUGHT YOU'D EVER... (3X)
NEVER THOUGHT YOU... (2X)
NEVER THOUGHT YOU... (2X)


Part Eight 
F5 - E5 - G5 - F#5 - F5 - D5


Part Nine - F5 E5 D5

Chord Chart
A5   D5   G#5   F5   E5   G5   F#5
----------------------------------
----------------------------------
----------------------------------
-----7---------------2------------
-7---5-----6-----3---2-----5----4-
-5---------4-----1---------3----2-

Best
Leo

Red Mosquito


A couple of people have said they've seen PJ play this live and
it's in standard tuning. I've also been told that the opening riff
is played at the 5th fret so I've tried to figure it out there,
I hope it sounds OK. 
Anyone want to have a go at the solos?


INTRO:
E-|-------------------|-
B-|-------------------|-
G-|-7---------------7-|-
D-|-7-7-----7-7-----7-|-
A-|-5-0h5p0-8-0h5p0-5-|-
E-|-------------------|-

VERSE:
   D  F(let ring)                      D  C(let ring)
E|-2--1--------------------------------2--0----------|
B|-3--1--------------------------------3--1----------|
G|-2--2--------------------------------2--0----------|
D|-0--3--------------------------------0--2----------|
A|----------------------------------------3----------|
E|---------------------------------------------------|
the window,little red mosquito...I was not allowed to (etc.)


   D  F(let ring)                      D  C  F  C
E|-2--1--------------------------------2--0--1--0------|
B|-3--1--------------------------------3--1--1--1------|
G|-2--2--------------------------------2--0--2--0------|
D|-0--3--------------------------------0--2--3--2------|
A|----------------------------------------3-----3------|
E|-----------------------------------------------------|
I saw the sun go down, and now..(etc)..somewhere in 

PRE CHORUS:
E-|-------------------|-
B-|-------------------|-
G-|-7---------------7-|-
D-|-7-7-----7-7-----7-|-
A-|-5-0h5p0-8-0h5p0-5-|-
E-|-------------------|-

CHORUS:
    F                  C
E-|------------------|-------------|-
B-|---------10-------|-------5-----|-
G-|------10----10----|-----5---5---|-
D-|---10----------10-|---5-------5-|-
A-|-8----------------|-3-----------|-
E-|------------------|-------------|-

    D#            A#            C
E-|-------------|-------------|------|-
B-|-------8-----|-------3-----|------|-
G-|-----8---8---|-----3---3---|-5--5-|-
D-|---8-------8-|---3-------3-|-5--5-|-
A-|-6-----------|-1-----------|-3--3-|-
E-|-------------|-------------|------|-

LITTLE C RIFF AT END OF CHORUS:
E-|-----------|--------------------|-
B-|-----------|--------------------|-
G-|-10--9-----|-(second--10--9--12-|-
D-|--------10-|--chorus)-----------|-
A-|-----------|--------------------|-
E-|-----------|--------------------|-

The rest of the song is basically just repeats of the above
progressions, so just play along with the CD to get the right
pattern and structure.



RED MOSQUITO

Pearl Jam - No Code

This represents our interpretation of the original artist's work, to be used for personal or 

educational use only.

Transcibed by Matt Forth.
If you add to this or fix any mistakes, please send us a copy.
(Please email if you are a drummer / bass guitarist near Brisbane interested in jammin'!!!!)

INTRO

E|----------------|
B|----------------|
G|7-------7---5---|
D|7---7---7---5---|
A|5---7---5---3---|
E|----5-----------|
  .   .   .   .    


VERSE

E|----------------|----------------|
B|----------------|----------------|
G|7---------------|7---9-----------|
D|7---7-----------|7---9-----------|
A|5---7-----------|5---7-----------|
E|----5-----------|----------------|
  .   .   .   .    .   .   .   .    


E|----------------|----------------|
B|----------------|----------------|
G|7---------------|7---9--10---9---|
D|7---7-----------|7---9--10---9---|
A|5---7-----------|5---7---8---7---|
E|----5-----------|----------------|
  .   .   .   .    .   .   .   .    


CHORUS

E|----------------|----------------|
B|----------------|----------------|
G|10------8-------|----------------|
D|10--10--8---8---|10--------------|
A|8---10--6---8---|10--------------|
E|----8-------6---|8---------------|
  .   .   .   .    .   .   .   .    

E|----------------|----------------|----------------|
B|----------------|----------------|----------------|
G|10------8-------|----------------|----------------|
D|10--10--8---8---|10--------------|10--------------|
A|8---10--6---8---|10--------------|10--------------|
E|----8-------6---|8---------------|8---------------|
  .   .   .   .    .   .   .   .    .   .   .   .   



Intro riff x 8


Verse 1:

Watched out the window with a red mosquito
I was not allowed to leave the room
I saw the sun go down and now it's coming up
Somewhere in the time between


Chorus:

I was bitten
must have been the devil
He was just paying me

A little visit
Reminded me of his presense
Letting me know

He's waiting


Intro riff x4


Verse 2:

Red man's your neighbor call it behavior
While you're climbing up slippery hills
Two steps ahead of him punctures in your neck
hovering just above your bed hovering just above your bed


Chorus


Intro riff x 8


Chorus riff (first bar only) x 8 out


Lukin

Verse - E5 (D5) E5 (C5) - The Chords In Parenthesis Are The Pull Off Chords.
I SEE THEM SUFFER 
I SEE MY WORLD, MY FUCKING HOME
I'D NEVER LEAVE YOU, NEVER LEAVE YOU, RUN AWAY FROM HOME
I NEVER THOUGHT I'D NEVER CHANGE MY MIND AWAY FROM HOME
I'M GOING TO LEAVE RIGHT NOW
I'M LEANING ON THE WEIGHT ALONE


Chorus - E5 D5 C5 - The End Of The Chorus Is A Quick Slide Down From C5 By
D5 And E5.
OH, I LOVE LUKIN
OH, I LOVE LUKIN
I LOVE LUKIN
LOOKING FOR SOME PROOF
IS THAT HOW MY LIFE IS RUN?


Verse - E5 (D5) E5 (C5) - The Chords In Parenthesis Are The Pull Off Chords.
I SEE MYSELF UP
I LEAVE IT ON THE WAVE ALONE
I'D NEVER LEAVE YOU, NEVER TAKE MY WORLD, MY FUCKING HOME
I NEVER THOUGHT THAT I COULD TAKE MY WORLD AWAY FROM HOME
I CAN'T DENY IT
I CAN'T CONTROL MYSELF


Verse Chords
E5    D5    C5
------------------
------------------
------------------
------------------
14----12----10----
12----10-----8----

Chorus Chords
E5    D5    C5
------------------
------------------
------------------
-9-----7-----5----
-7-----5-----3----
------------------

Best
Leo

Present Tense

Drop D tuning: DADGBe

The verse is variations of this (shown here is the first time through):

--5------------5-------------5----------3-2-0---0----
----3-3-3-3-3----3---3-------------------------------
----------------------------------------------2---2-2
0-------------------------------------------------
-------------3-----3---3-3-2--------2-0--------------
-----------------------------------------------------


Chorus:

D         G   F     G   D       G     F     G D G F G D G
-------------------------------------------             ---
-------------------------------------------             ---
-------------------------------------------  etc.       ---
0--0----X-5-5^3-3-X-5-5^0-0-0-X-5-5-5^3-3-3             X-5
0--0----X-5-5^3-3-X-5-5^0-0-0-X-5-5-5^3-3-3             X-5
12-12\0-X-5-5^3-3-X-5-5^0-0-0-X-5-5-5^3-3-3             X-5

The first time through, Mike lets it end at the G, the second time (not 
shown) a D.

Then the bridge goes like this, (with variations on the picking 
pattern):

Bb                            A                         G
------10-----10-----10-----10-------9-----9-----9-----9--------
8-8-8----8-8----8-8----8-8----7-7-7---7-7---7-7---7-7---5-5-5--

-----------------------------------------------
-----------------------------------------------
7-----7-----7-----7-------7-----7-----7-----7--
--5-5---5-5---5-5---5-5-5---5-5---5-5---5-5----
-----------------------------------------------
-----------------------------------------------

Then:

Bb                      A                       G

11-11-11-11-11-11-11-11-10-10-10-10-10-10-10-10-8-8-8-8-8-8-8-8-8-8-8
10-10-10-10-10-10-10-10-9--9--9--9--9--9--9--9--7-7-7-7-7-7-7-7-7-7-7
8--8--8--8--8--8--8--8--7--7--7--7--7--7--7--7--5-5-5-5-5-5-5-5-5-5-5

----------------                --
8-8-8-8-8-------                10
7-7-7-7-7------- etc.           8-
5-5-5-5-5------- then this      7-
---------------- several times: --
----------------                --

Outro:

While mike plays the verse, Stone does this:

--------------------------       /14-------14-------14-------
15-13----15-13----15-13--- etc.  ----12-12----12-12----12-12-
------12-------12-------12 then: ----------------------------
--------------------------       ----------------------------
--------------------------       ----------------------------
--------------------------       ----------------------------



And fade....






PRESENT TENSE

Pearl Jam - No Code

This represents our interpretation of the original artist's work, to be used for personal or 

educational use only.

Transcibed by Bryce Christensen and Matt Forth.
If you add to this or fix any mistakes, please send us a copy.
(Please email if you are a drummer / bass guitarist near Brisbane interested in jammin'!!!!)


Main Riff:

  D                C                B#

E|------5---------|------5---------|------5---------|
B|--------3-------|--------3-------|--------3-------|
G|----------------|----------------|----------------|
D|0---------------|----------------|----------------|
A|----------------|3---------------|2---------------|
E|----------------|----------------|----------------|
  .   .   .   .    .   .   .   .    .   .   .   .   


  A

E|--3---2---0-----|
B|----------------|
G|---------------.|
D|---------------.|
A|--0-------------|
E|----------------|



Chorus Riff:

E|--------------------------|
B|--------------------------|
G|--------------------------|
D|------------------00000---|
A|00------------------------|
E|----33311-0-0-------------|





Verse 1: (main riff)

Do you see the way that tree bends
 
does it inspire,

leaning out to catch the suns rays

a lesson to be applied

are you getting something out of this

all encompassing trip


Chorus: (chorus riff)


You can't spend your time alone,

redigesting past regrets.....Oh

You can't come to terms  and realise

your the only one who cannot forgive yourself

Makes much more sense,

to live in the present tense


2nd verse: (main riff)


Have you ideas on how this life ends,

Checked your ends and studied the line,

Have you ever belived that the road ahead

sands off into the light

seems that needlessly it getting harder

to find an approach and no where to live

are we getting something out of this

all encompassing trip


Chorus (chorus riff)


Bridge:

(one beat = quarter bar?)

16 x D, 16 x C, 32 x G
16 x D, 16 x C, 32 x G
8 x D, 8 x C, 16 x G
8 x D, 8 x C, 16 x G
8 x D, 8 x C, 16 x G
8 x D, 8 x C, 16 x G
32 x D


Main Riff Out


Mankind

chord voicings
B5  = X244XX
E5  = 022XXX OR X799XX
C#5 = X466XX
G#5 = 466XXX
A5  = 577XXX
C5  = X355XX
F#5 = 244XXX

Mankind
intro - 
B5 B5 B5 B5 E5 E5 E5 E5 C#5 C#5 C#5 C#5 G#5 G#5 G#5 G#5 

B5 B5 B5 B5 E5 E5 E5 E5 C#5 C#5 A5 A5 A5 A5

(ok main riff here)
C5 C5 C5 C5 C5 F#5

C5 C5 C5 C5 C5 F#5

C5 C5 C5 C5 C5 F#5
You'll be,
C5 C5 C5 C5 C5 F#5
going out with radio
C5 C5 C5 C5 C5 F#5
going out with disco
C5 C5 C5 C5 C5 F#5
going out with bacchanal
C5 C5 C5 C5 C5 F#5
I'll be,
C5 C5 C5 C5 C5 F#5
going out with telephone
C5 C5 C5 C5 C5 F#5
going out alone
C5 C5 C5 C5 C5 F#5
to the radar zone

B5 B5 B5 B5   E5 E5 E5 E5 C#5 C#5 C#5 C#5 G#5 G#5 G#5 G#5
it's all just inadvertent imitation       I don't mean mine
B5 B5 B5 B5 E5 E5 E5 E5    C#5 C#5 G#5 G#5 G#5 G#5
it's all across this nation
B5 B5 B5 B5  E5 E5 E5 E5 C#5 C#5 C#5 C#5 G#5 G#5 G#5 G#5
if it's just inadvertent simulation      A pattern in all mankind
B5 B5 B5 B5 E5 E5 E5 E5 C#5 C#5 C#5 C#5 A5 A5 A5 A5
what's got the whole world fakin'?

C5 C5 C5 C5 C5 F#5
I'll be, 
C5 C5 C5 C5 C5 F#5
playin' with my magazine
C5 C5 C5 C5 C5 F#5
usin' up my lysterine
C5 C5 C5 C5 C5 F#5
like ovaltine
C5 C5 C5 C5 C5 F#5
and you'll be
C5 C5 C5 C5 C5 F#5
dippin in your battleship
C5 C5 C5 C5 C5 F#5
for the latest tip
C5 C5 C5 C5 C5 F#5
for the latest dream

B5 B5 B5 B5   E5 E5 E5 E5 C#5 C#5 C#5 C#5 G#5 G#5 G#5 G#5
it's all just inadvertent imitation       I don't mean mine
B5 B5 B5 B5 E5 E5 E5 E5    C#5 C#5 G#5 G#5 G#5 G#5
it's all across this nation
B5 B5 B5 B5  E5 E5 E5 E5 C#5 C#5 C#5 C#5 G#5 G#5 G#5 G#5
if it's just inadvertent simulation      A pattern in all mankind
B5 B5 B5 B5 E5 E5 E5 E5 C#5 C#5 C#5 C#5 A5 A5 A5 A5
what's got the whole world fakin'?

-SOLO OVER THIS BASSLINE- this basline is repeated 3 times
-solo is Em pent... i think-
G----------------------------------------------------
D----------------------------------------------------
A----------------------------------------------------
E-0-0-0-0-0-9-0-0-0-0-10-0-0-0-0-11-0-0-0-0-12-0-0-0-
                                            ^ 
third time through dont hit the 12 just leave it open
mike just rides an E while stone solos
-muted strings here-
B5 B5 B5 B5  E5 E5 E5 E5 C#5 C#5 C#5 C#5 G#5 G#5 G#5 G#5
if it's just inadvertent imitation       a pattern in all mankind
B5 B5 B5 B5  E5 E5 E5 E5           C#5 C#5 G#5 G#5
what's got the whole world fakin'?
B5 B5 B5 B5  E5 E5 E5 E5           C#5 C#5 G#5 G#5
what's got the whole world fakin'?
B5 B5 B5 B5  E5 E5 E5 E5           C#5 C#5 G#5 G#5
what's got the whole world fakin'?
B5 B5 B5 B5  E5 E5 E5 E5           C#5 C#5 G#5 G#5
what's got the whole world fakin'?
B5 B5 B5 B5  E5 E5 E5 E5           C#5 C#5 G#5 G#5 G#5 G#5
what's got the whole world fakin'?
B5 B5 B5 B5  E5 E5 E5 E5           C#5 C#5 G#5 G#5 G#5 G#5
what's got the whole world fakin'?
B5 B5 B5 B5  E5 E5 E5 E5 C#5 C#5 C#5 C#5 A5 A5 A5 A5 B5/



This is played in standard tuning w/medium distortion

Intro/Chorus: 
E------------------------------------------------
A------------------------------------------------
D-4-4-4-4-4-4-4-4-9-9-9-9-9-9-9-9-6-6-6-6-6-6-6-6
G-4-4-4-4-4-4-4-4-9-9-9-9-9-9-9-9-6-6-6-6-6-6-6-6
B-2-2-2-2-2-2-2-2-7-7-7-7-7-7-7-7-4-4-4-4-4-4-4-4
E------------------------------------------------

E------------------------------------------------
A------------------------------------------------
D------------------------------------------------
G-6-6-6-6-6-6-6-6--------------------------------
B-6-6-6-6-6-6-6-6--------------------------------
E-4-4-4-4-4-4-4-4--------------------------------

Then the 'going out with radio' part

E--------------------------------------
A--------------------------------------
D-5-5-5-5-5-5-5-5-5/4-4----------------
G-5-5-5-5-5-5-5-5-5/4-4-4-4-4-4-4-4-4-4
B-3-3-3-3-3-3-3-3-3/2-2-4-4-4-4-4-4-4-4
E-----------------------2-2-2-2-2-2-2-2




MANKIND

Pearl Jam - No Code

This represents our interpretation of the original artist's work, to be used for personal or 

educational use only.

Transcibed by Matt Forth.
If you add to this or fix any mistakes, please send us a copy.
(Please email if you are a drummer / bass guitarist near Brisbane interested in jammin'!!!!)


INTRO / CHORUS:

E|----------------|----------------|----------------|
B|----------------|----------------|----------------|
G|--------9-------|6---------------|--------9-------|
D|9-------9-------|6-------6-------|9-------9-------|
A|9-------7-------|4-------6-------|9-------7-------|
E|7---------------|--------4-------|7---------------|
  .   .   .   .    .   .   .   .    .   .   .   .   

E|----------------|
B|----------------|
G|6---------------|
D|6---6-----------|
A|4---6-----------|
E|----4-----------|
  .   .   .   .    


VERSE:

E|----------------|----------------|
B|----------------|----------------|
G|5---------------|----------------|
D|5---------------|----5-----------|
A|3---------------|----5-----------|
E|----------------|----3-----------|
  .   .   .   .    .   .   .   .    


INTRO

VERSE 1
You'll be going out with radio
going out with disco
going out with bacchanal

I'll be going out with telephone
going out alone
to the radar zone


CHORUS
I'ts all just inadvertant imitation and I don't mean mine
It's all across this nation
It's all just inadvertant simulation a patterin in all mankind
What's got the whole world faking it.


VERSE 2
I'll be playing with my magazine
using up my listerine
like ovaltine

You'll be dripping in your battleship
for the latest trip
for the latest dream

CHORUS

Around The Bend

VERSE

E|----------------|----------------|
B|7-------7---7---|5---2---5---3---|
G|6-------6---6---|4---1---4---2---|
D|----------------|----------------|
A|----------------|----------------|
E|----------------|----------------|


"CHORUS"

E|----------------|----------------|
B|3-----3-5---5-3-|--3-------------|
G|2-----2-4---4-2-|--2-------------|
D|----------------|----------------|
A|----------------|----------------|
E|----------------|----------------|



VERSE 1:

I am wishing you a well
Wind at peace within your cell
covers up I cast you off
I'll be watching as you breathe
I sit still you move I send

(chrous) You off around the bend


VERSE 2:

I hold your head deep in my arms
My fingertips they cover your eyes
Off you dream my little child
There's a sun around around

(chorus) There's a sun around the bend


VERSE 3:

All the evenings close like this
All these moments that I've missed
Please forgive me wont you dear
Please forgive and let me share

(chorus) With you around the bend


VERSE 4:

You're an angel when you sleep
How I want your soul to keep

(chorus) On and on around the bend





Comments


Popular Pearl Jam tabs & chords
Push Me Pull Me 1 Bass Tabs
Rearviewmirror 3 Bass Tabs
25 Minutes To Go Chords
Gods Dice Chords
Corduroy Live Tabs
Half Full Tabs
I Am Mine 4 Tabs
Man Of The Hour Tabs
No Way Tabs
Love Reign Oer Me Ukulele


Song lyrics



↑ Back to top | Tablatures and chords are parodies/interpretations of the original songs. You may use it for private study, scholarship, research or language learning purposes only
© 2014 AZChords.com Contact us | Privacy policy | DMCA | Add/correct tabs | Request tabs | Top 50 tabs