» » »

Pearl Jam, My Fathers Son Tabs (ver.1)

Artists:  A B C D E F G H I J K L M N O P Q R S T U V W X Y Z # 

My Fathers Son Tabs (ver.1)

Pearl Jam Tabs
Rating:
0/5 (0 votes)
My Fathers Son lessons Tabs too difficult? Try these video lessons and learn fast
                -------------------------------------------------------------------------------
-------------------------------------------------------------------------------

Tuning: standard


|-----------------|-----5----------|-------/6--5----------|--------------|
|-----------------|---6------------|-------------6--------|--------------|
|-----------------|-7--------------|---------------7------|-7--9--10-----|
|-----------------|----------------|-0--------------------|--------------|
|-----------------|----------------|----------------------|--------------|
|-----------------|----------------|----------------------|--------------|

|-5-3----4-3----4-6----7-6----|-4-3----4-3----4-6----7-6----|-7-6-4-3----|
|-5-3----4-3----4-6----7-6----|-4-3----4-3----4-6----7-6----|-7-6-4-3----|
|-----------------------------|-----------------------------|------------|
|-----------------------------|-----------------------------|------------|
|-----------------------------|-----------------------------|------------|
|-----------------------------|-----------------------------|------------|

|---5------|-6-5--------|----------------------|--------------|
|-6--------|-----6------|-8-8-8-8-8-8-8-8------|-5--6---------|
|----------|------------|----------------------|--------------|
|----------|------------|----------------------|--------------|
|----------|------------|----------------------|--------------|
|----------|------------|----------------------|--------------|

|-5-3----4-3----4-6----7-6----|-4-3----4-3----4-6----7-6----|-7-6-4-3----7-6-7-9-----|
|-5-3----4-3----4-6----7-6----|-4-3----4-3----4-6----7-6----|-7-6-4-3----7-6-7-9-----|
|-----------------------------|-----------------------------|------------------------|
|-----------------------------|-----------------------------|------------------------|
|-----------------------------|-----------------------------|------------------------|
|-----------------------------|-----------------------------|------------------------|

|-7-6-4-3----7-6-7-9--|
|-7-6-4-3----7-6-7-9--|
|---------------------|
|---------------------|
|---------------------|
|---------------------|


||-------------|------10-----|-------------|-7-------8------||
||-10---12-----|-8-----------|-10---12-----|-7-------8------||
|*-11----------|-9-----------|-11----------|-7-------9------*|
|*-12----------|-10----------|-12----------|-9-------10-----*|
||-12----------|-10----------|-12----------|-9-------10-----||
||-10----------|-8-----------|-10----------|-7-------8------||

|-----------------|-----5----------|-----/6--5----------|----------------10----10-----|
|-----------------|---6------------|-----------6--------|-----------------------------|
|-----------------|-7--------------|-------------7------|-7--9--10----10----10----10--|
|-----------------|----------------|-0------------------|-----------------------------|
|-5-3--5-3--5-3---|----------------|--------------------|-----------------------------|
|-----------------|----------------|--------------------|-----------------------------|

|-5-3----4-3----4-6----7-6----|-4-3----4-3----4-6----7-6----|-7-6-4-3----7-6-7-9-----|
|-5-3----4-3----4-6----7-6----|-4-3----4-3----4-6----7-6----|-7-6-4-3----7-6-7-9-----|
|-----------------------------|-----------------------------|------------------------|
|-----------------------------|-----------------------------|------------------------|
|-----------------------------|-----------------------------|------------------------|
|-----------------------------|-----------------------------|------------------------|

|-7-6-4-3----7-6-7-9--|
|-7-6-4-3----7-6-7-9--|
|---------------------|
|---------------------|
|---------------------|
|---------------------|
            

comments powered by Disqus
↑ Back to top | Pearl Jam Tabs for My Fathers Son. Lyrics for acoustic guitar and electric guitar. Tablatures and chords are parodies/interpretations of the original songs. You may use it for private study, scholarship, research or language learning purposes only