>
 >
Marker In The Sand

Marker In The Sand Guitar Tabs

Pearl Jam - Marker In The Sand chords, tabs, tablatures, lyrics

Guitar lessons | Add/correct | Request | Top 50 tabs Artists:  A B C D E F G H I J K L M N O P Q R S T U V W X Y Z 0-9

Marker In The Sand Guitar Tabs – Pearl Jam

CD, Sheet music, Poster

Do you like Marker In The Sand? Share with your friends now
ChordsTabsTabs v2Ukulele


G1: DGDGCE, capo 3
G2: standard tuning

-|------------------0-------0--------------------0-------0--0-----------------|
-|------------------0-------0--------------------0-------0--0-----------------|
-|--------------2---0---2---0----------------2---0---2---0--------------------|
-|--7--7--7-----2-------2-------7-7-7--7-----2-------2------------------------|
-|--9--9--9-----4-------4-------9-9-9--9-----4-------4------------------------|
-|--7--7--7-----2-------2-------7-7-7--7-----2-------2------------------------|
 G1 Intro

-|------------------0-------0--------------------0-------0--------------------|
-|------------------0-------0--------------------0-------0--------------------|
-|--------------2---0---2---0----------------2---0---2---0--------------------|
-|--7--7--7-----2-------2-------7-7-7--7-----2-------2------------------------|
-|--9--9--9-----4-------4-------9-9-9--9-----4-------4------------------------|
-|--7--7--7-----2-------2-------7-7-7--7-----2-------2------------------------|
 G1                                              There is a

-|-------------------------0-------0--------------------------0-------0-------|
-|-------------------------0-------0--------------------------0-------0-------|
-|---------------------2---0---2---0----------------------2---0---2---0-------|
-|--7--7--7---x--x--x--2-------2-------7--7--7---x--x--x--2-------2-----------|
-|--9--9--9---x--x--x--4-------4-------9--9--9---x--x--x--4-------4-----------|
-|--7--7--7---x--x--x--2-------2-------7--7--7---x--x--x--2-------2-----------|
 G1 Marker                     no one sees it cause the sand has covered

-|----------------------------------------------------------------------------|
-|----------------------------------------------------------------------------|
-|----------------------------------------------------------------------------|
-|--10--10\---------------------------10---10\--------------------------------|
-|--10--10\---------------------------10---10\--------------------------------|
-|---8---8\----------------------------8----8\--------------------------------|
 G2

-|-----------------------0-------0--------------------------0-------0---------|
-|-----------------------0-------0--------------------------0-------0---------|
-|-------------------2---0---2---0----------------------2---0---2---0---------|
-|--7---7---x--x--x--2-------2-------7--7--7---x--x--x--2-------2-------------|
-|--9---9---x--x--x--4-------4-------9--9--9---x--x--x--4-------4-------------|
-|--7---7---x--x--x--2-------2-------7--7--7---x--x--x--2-------2-------------|
 G1 Over                     all the messages  it  kept  misunder-

-|----------------------------------------------------------------------------|
-|------------------------------------------------x---x--3--------------------|
-|------------------------------------------------x---x--3-----0-0------------|
-|-10--10\---------------------------10---10\-----x---x--3-----0-0------------|
-|-10--10\---------------------------10---10\---------------------------------|
-|--8---8\----------------------------8----8\---------------------------------|
 G2

-|-------------------------0-------0------------------------0-------0---------|
-|-------------------------0-------0------------------------0-------0---------|
-|---------------------2---0---2---0--------------------2---0---2---0---------|
-|--7--7--7---x--x--x--2-------2-------7---7---x--x--x--2-------2-------------|
-|--9--9--9---x--x--x--4-------4-------9---9---x--x--x--4-------4-------------|
-|--7--7--7---x--x--x--2-------2-------7---7---x--x--x--2-------2-------------|
 G1 -standing                   what  original  truth  was   and  out

-|----------------------------------------------------------------------------|
-|---------x--x--x--x--x--3---x--3-----------x--x--x--x--x--3-----------------|
-|---------x--x--x--x--x--3---x--3-----------x--x--x--x--x--3-----------------|
-|--10\----x--x--x--x--x--3---x--3----10\----x--x--x--x--x--3-----------------|
-|--10\-------------------------------10\-------------------------------------|
-|---8\--------------------------------8\-------------------------------------|
 G2

-|------------------------0-------0--------------------------0-------0--------|
-|------------------------0-------0--------------------------0-------0--------|
-|--------------------2---0---2---0----------------------2---0---2---0--------|
-|---7---7---x--x--x--2-------2-------7--7--7---x--x--x--2-------2------------|
-|---9---9---x--x--x--4-------4-------9--9--9---x--x--x--4-------4------------|
-|---7---7---x--x--x--2-------2-------7--7--7---x--x--x--2-------2------------|
 G1 Expanding                   in  a  faith  but  not  in  love  yeah

-|----------------------------------------------------------------------------|
-|-----------x-----x--x--x--3---0h3-------------x-----x--x--x--3--------------|
-|-----------x-----x--x--x--3---0h3-------------x-----x--x--x--3--------------|
-|--10\------x-----x--x--x--3---0h3--10\--------x-----x--x--x--3--------------|
-|--10\------------------------------10\--------------------------------------|
-|---8\-------------------------------8\--------------------------------------|
 G2

-|---------------------------|------------------------------------------------|
-|---0-----------------------|------------------------------------------------|
-|---2-----------------------|------------------------------------------------|
-|---0-----------------------|------------------------------------------------|
-|---------------------------|------------------------------------------------|
-|---------------------------|------------------------------------------------|
 G1         What went wrong?

-|-------1-------------------|------------------------------------------------|
-|-------1-------------------|------------------------------------------------|
-|---3---2-------------------|------------------------------------------------|
-|-------3-------------------|------------------------------------------------|
-|---------------------------|------------------------------------------------|
-|---------------------------|------------------------------------------------|
 G2

-|---0---0--0-----------------------------------------------------------------|
-|---2---2--2--------------4---4--4----4---2--2-------------------------------|
-|---4---4--4----4--2--4---0---0--0----0---0--0-------------------------------|
-|---0---0--0----0--0--0---x---x--x----x---0--0-------------------------------|
-|---0---0--0----0--0--0---5---5--5----5--------------------------------------|
-|----------------------------------------------------------------------------|
 G1         Walking tightrope high over moral ground

-|----------------------------------------------------------------------------|
-|-------3--3----3-----3-------8--8----8--------------------------------------|
-|---5---3--3----3--5--3--10---8--8----8--10-10-------------------------------|
-|---3---3--3----3--3--3-------8--8----8--------------------------------------|
-|----------------------------------------------------------------------------|
-|----------------------------------------------------------------------------|
 G2

-|------------------------------------------------2---2--2----2---0--0--------|
-|------------------------4---4--4----4---2--2----0---0--0----0---0--0--------|
-|---2-h4--4----4--2--4---0---0--0----0---0--0----2---2--2----2---0--0--------|
-|---0-----0----0--0--0---x---x--x----x---0--0----0---0--0----0---------------|
-|---0-----0----0--0--0---5---5--5----5---------------------------------------|
-|----------------------------------------------------------------------------|
 G1          Seeing visions of falling up somehow,    well do come down

-|----------------------------------------------------------------------------|
-|------3--3----3-----3---8---8--8----8------8----8-----10---10---10-10-------|
-|---5--3--3----3--5--3---8---8--8----8--10-10----8----------10---10-10-------|
-|---3--3--3----3--3--3---8---8--8----8----------10--10------10---10-10-------|
-|----------------------------------------------------------------------------|
-|----------------------------------------------------------------------------|
 G2

-|----------------------------------------------------------------------------|
-|------------------------4---4--4----4---2--2--------------------------------|
-|---2-h4--4----4--2--4---0---0--0----0---0--0--------------------------------|
-|---0-----0----0--0--0---x---x--x----x---0--0--------------------------------|
-|---0-----0----0--0--0---5---5--5----5---------------------------------------|
-|----------------------------------------------------------------------------|
 G1          With the living, let what is living love

-|----------------------------------------------------------------------------|
-|------3--3----3-----3---8---8--8----8---------------------------------------|
-|---5--3--3----3--5--3---8---8--8----8--10-10--------------------------------|
-|---3--3--3----3--3--3---8---8--8----8---------------------------------------|
-|----------------------------------------------------------------------------|
-|----------------------------------------------------------------------------|
 G2

-|------------------------------------------------2---2--2----2---0--0--------|
-|------------------------4---4--4----4---2--2----0---0--0----0---0--0--------|
-|---2-h4--4----4--2--4---0---0--0----0---0--0----2---2--2----2---0--0--------|
-|---0-----0----0--0--0---x---x--x----x---0--0----0---0--0----0---------------|
-|---0-----0----0--0--0---5---5--5----5---------------------------------------|
-|----------------------------------------------------------------------------|
 G1          So unforgiving yet needing forgiveness first, God what do you

-|----------------------------------------------------------------------------|
-|------3--3----3-----3---8---8--8----8------8---10-------------10--11-11-11--|
-|---5--3--3----3--5--3---8---8--8----8--10-10---10--10---10-10-10--10-10-10--|
-|---3--3--3----3--3--3---8---8--8----8----------10--10---10-10-10--10-10-10--|
-|----------------------------------------------------------------------------|
-|----------------------------------------------------------------------------|
 G2

-|-------------------------0-------0---------------------------0-------0------|
-|-------------------------0-------0---------------------------0-------0------|
-|---------------------2---0---2---0-----------------------2---0---2---0------|
-|--7--7--7---x--x--x--2-------2-------7-7-7--7---x--x--x--2-------2----------|
-|--9--9--9---x--x--x--4-------4-------9-9-9--9---x--x--x--4-------4----------|
-|--7--7--7---x--x--x--2-------2-------7-7-7--7---x--x--x--2-------2----------|
 G1 Say                                                       Those unde-

-|----------------------------------------------------------------------------|
-|----------------------------------------------------------------------------|
-|----------------------------------------------------------------------------|
-|--10---10\------------------------------------------------------------------|
-|--10---10\------------------------------------------------------------------|
-|---8----8\------------------------------------------------------------------|
 G2

-|-------------------------0-------0---------------------------0-------0------|
-|-------------------------0-------0---------------------------0-------0------|
-|---------------------2---0---2---0-----------------------2---0---2---0------|
-|--7--7--7---x--x--x--2-------2-------7-7-7--7---x--x--x--2-------2----------|
-|--9--9--9---x--x--x--4-------4-------9-9-9--9---x--x--x--4-------4----------|
-|--7--7--7---x--x--x--2-------2-------7-7-7--7---x--x--x--2-------2----------|
 G1 -cided                     needn't have faith to be free and those mis-

-|----------------------------------------------------------------------------|
-|----------------------------------------------------------------------------|
-|----------------------------------------------------------------------------|
-|--10--10\-------------------------xxxx-10--10\------------------------------|
-|--10--10\-------------------------xxxx-10--10\------------------------------|
-|---8---8\-------------------------xxxx--8---8\------------------------------|
 G2

-|-------------------------0-------0--------------------------0-------0-------|
-|-------------------------0-------0--------------------------0-------0-------|
-|---------------------2---0---2---0----------------------2---0---2---0-------|
-|--7--7--7---x--x--x--2-------2-------7--7--7---x--x--x--2-------2-----------|
-|--9--9--9---x--x--x--4-------4-------9--9--9---x--x--x--4-------4-----------|
-|--7--7--7---x--x--x--2-------2-------7--7--7---x--x--x--2-------2-----------|
 G1 -guided                    there was plan for them to be now you got

-|----------------------------------------------------------------------------|
-|----------------------------------------------------------x--x--3-----------|
-|----------------------------------------------------------x--x--3-----------|
-|-10--10\---------------------x--x--10---10\---------------x--x--3-----------|
-|-10--10\---------------------x--x--10---10\---------------------------------|
-|--8---8\---------------------x--x---8----8\---------------------------------|
 G2

-|--------------------------0---------0--------------------------0-------0----|
-|--------------------------0---------0--------------------------0-------0----|
-|---------------------2----0----2----0----------------------2---0---2---0----|
-|--7--7--7---x--x--x--2---------2--------7--7--7---x--x--x--2-------2--------|
-|--9--9--9---x--x--x--4---------4--------9--9--9---x--x--x--4-------4--------|
-|--7--7--7---x--x--x--2---------2--------7--7--7---x--x--x--2-------2--------|
 G1 Both sides                    claiming killing in God's name but God is

-|----------------------------------------------------------------------------|
-|--------------------------11--11-10---------------x--x--x--x--x--3---x--3---|
-|------------x--x--x--x--x-12--12-10---------------x--x--x--x--x--3---x--3---|
-|--10\-------x--x--x--x--x--------------10\----------------------------------|
-|--10\----------------------------------10\----------------------------------|
-|---8\-----------------------------------8\----------------------------------|
 G2

-|------------------------0-------0--------------------------0-------0--------|
-|------------------------0-------0--------------------------0-------0--------|
-|--------------------2---0---2---0----------------------2---0---2---0--------|
-|---7---7---x--x--x--2-------2-------7--7--7---x--x--x--2-------2------------|
-|---9---9---x--x--x--4-------4-------9--9--9---x--x--x--4-------4------------|
-|---7---7---x--x--x--2-------2-------7--7--7---x--x--x--2-------2------------|
 G1  Nowhere                  to be   found  conveniently  yeah

-|----------------------------------------------------------------------------|
-|----------------------x-11--11-10-------------x--x--x--x--3--3--------------|
-|----------------------x-12--12-10-------------x--x--x--x--3--3--------------|
-|--10\------------------------------10\--------------------------------------|
-|--10\------------------------------10\--------------------------------------|
-|---8\-------------------------------8\--------------------------------------|
 G2

-|--------------------------|-------------------------------------------------|
-|------0-------------------|-------------------------------------------------|
-|------2-------------------|-------------------------------------------------|
-|---0--0-------------------|-------------------------------------------------|
-|---2----------------------|-------------------------------------------------|
-|--------------------------|-------------------------------------------------|
 G1          What goes on?

-|--------------------------|-------------------------------------------------|
-|-------1------------------|-------------------------------------------------|
-|---3---2------------------|-------------------------------------------------|
-|-------3------------------|-------------------------------------------------|
-|--------------------------|-------------------------------------------------|
-|--------------------------|-------------------------------------------------|
 G2

-|----------------------------------------------------------------------------|
-|------------------------4---4--4----4---2--2--------------------------------|
-|---2-h4--4----4--2--4---0---0--0----0---0--0--------------------------------|
-|---0-----0----0--0--0---x---x--x----x---0--0--------------------------------|
-|---0-----0----0--0--0---5---5--5----5---------------------------------------|
-|----------------------------------------------------------------------------|
 G1         Walking tightrope high over moral ground

-|----------------------------------------------------------------------------|
-|------3--3----3-----3---8---8--8----8------8--------------------------------|
-|---5--3--3----3--5--3---8---8--8----8--10-10--------------------------------|
-|---3--3--3----3--3--3---8---8--8----8---------------------------------------|
-|----------------------------------------------------------------------------|
-|----------------------------------------------------------------------------|
 G2

-|------------------------------------------------2---------------0--0--------|
-|------------------------4---4--4----4---2--2----0---0--0----0---0--0--------|
-|---2-h4--4----4--2--4---0---0--0----0---0--0----2---2--2----2---0--0--------|
-|---0-----0----0--0--0---x---x--x----x---0--0----0---0--0----0---------------|
-|---0-----0----0--0--0---5---5--5----5---------------------------------------|
-|----------------------------------------------------------------------------|
 G1          Walk the bridges before you burn them down   do come round

-|----------------------------------------------------------------------------|
-|------3--3----3-----3---8---8--8----8------8----8-----10---10---10-10-------|
-|---5--3--3----3--5--3---8---8--8----8--10-10----8--10-10---10---10-10-------|
-|---3--3--3----3--3--3---8---8--8----8----------10--10-10---10---10-10-------|
-|----------------------------------------------------------------------------|
-|----------------------------------------------------------------------------|
 G2

-|----------------------------------------------------------------------------|
-|------------------------4---4--4----4---2--2--------------------------------|
-|---2-h4--4----4--2--4---0---0--0----0---0--0--------------------------------|
-|---0-----0----0--0--0---x---x--x----x---0--0--------------------------------|
-|---0-----0----0--0--0---5---5--5----5---------------------------------------|
-|----------------------------------------------------------------------------|
             With the living, let what is living love

-|----------------------------------------------------------------------------|
-|------3--3----3-----3---8---8--8----8------8--------------------------------|
-|---5--3--3----3--5--3---8---8--8----8--10-10--------------------------------|
-|---3--3--3----3--3--3---8---8--8----8---------------------------------------|
-|----------------------------------------------------------------------------|
-|----------------------------------------------------------------------------|
 G2

-|------------------------------------------------2----2----------------------|
-|------------------------4---4--4----4---2--2----0----0------0----0--0-------|
-|---2-h4--4----4--2--4---0---0--0----0---0--0----2----2------2----2--2-------|
-|---0-----0----0--0--0---x---x--x----x---0--0----0----0------0----0--0-------|
-|---0-----0----0--0--0---5---5--5----5---------------------------------------|
-|----------------------------------------------------------------------------|
 G1         So forgiving yet needing forgiveness first well what do you say?

-|----------------------------------------------------------------------------|
-|------3--3----3-----3---8---8--8----8------8----8--10-10---10---10----------|
-|---5--3--3----3--5--3---8---8--8----8--10-10----8--10-10---10---10----------|
-|---3--3--3----3--3--3---8---8--8----8----------10--10-10---10---10----------|
-|----------------------------------------------------------------------------|
-|----------------------------------------------------------------------------|
 G2

-|----------------------------------|-----------------------------------------|
-|---0--0--0---0----0---0--0--0-----|-----------------------------------------|
-|---2--2--2---2----2---2--2--2-----|-----------------------------------------|
-|---0--0--0---0----0---0--0--0-----|-----------------------------------------|
-|----------------------------------|-----------------------------------------|
-|----------------------------------|-----------------------------------------|
 G1               God, what do you

-|----------------------------------|-----------------------------------------|
-|--------------------10-10--10-10--|-----------------------------------------|
-|--12--12-12---10-12----10--10-10--|-----------------------------------------|
-|--10--10-10------------10--10-10--|-----------------------------------------|
-|----------------------------------|-----------------------------------------|
-|----------------------------------|-----------------------------------------|
 G2

-|-------------------------0-------0---------------------------0-------0------|
-|-------------------------0-------0---------------------------0-------0------|
-|---------------------2---0---2---0-----------------------2---0---2---0------|
-|--7--7--7---x--x--x--2-------2-------7-7-7--7---x--x--x--2-------2----------|
-|--9--9--9---x--x--x--4-------4-------9-9-9--9---x--x--x--4-------4----------|
-|--7--7--7---x--x--x--2-------2-------7-7-7--7---x--x--x--2-------2----------|
 G1 Say?

-|----------------------------------------------------------------------------|
-|----------------------------------------------------------------------------|
-|----------------------------------------------------------------------------|
-|--/10vvvvvvvvvvvvvv--\------------------------------------------------------|
-|----------------------------------------------------------------------------|
-|----------------------------------------------------------------------------|
 G2

-|----------------------------------------------------------------------------|
-|---6----4--4-----------4----2--2-----------6----4--4-----------4----2--2----|
-|---0----0--0-----------0----0--0-----------0----0--0-----------0----0--0----|
-|---x----x--x-----------x----x--x-----------x----x--x-----------x----x--x----|
-|---7----5--5-----------5----3--3-----------7----5--5-----------3----3--3----|
-|----------------------------------------------------------------------------|
 G1

-|--13---11-11-----\------------------------13---11-11----------11----9--9----|
-|--11---11-11-----\------------------------11---11-11-----------9----9--9----|
-|--12---12-12-----\------------------------12---12-12----------10---10-10----|
-|----------------------------------------------------------------------------|
-|----------------------11/13\11/13\11----------------------------------------|
-|----------------------------------------------------------------------------|
 G2

-|----------------------------------------------------------------------------|
-|---6----4--4-----------4----2--2-----------6----4--4------------------------|
-|---0----0--0-----------0----0--0-----------0----0--0------------------------|
-|---x----x--x-----------x----x--x-----------x----x--x------------------------|
-|---7----5--5-----------5----3--3-----------7----5--5------------------------|
-|----------------------------------------------------------------------------|
 G1

-|--13---11-11-----\------------------------13---13-13------------------------|
-|--11---11-11-----\------------------------11---11-11------------------------|
-|--12---12-12-----\------------------------12---12-12------------------------|
-|----------------------------------------------------------------------------|
-|----------------------11/13\11/13\11----------------------------------------|
-|----------------------------------------------------------------------------|
 G2

-|------------------0-------0-------------------0-------0---------------------|
-|------------------0-------0-------------------0-------0---------------------|
-|--------------2---0---2---0---------------2---0---2---0---------------------|
-|--7--7--7-----2-------2-------7--7--7-----2-------2-------------------------|
-|--9--9--9-----4-------4-------9--9--9-----4-------4-------------------------|
-|--7--7--7-----2-------2-------7--7--7-----2-------2-------------------------|
 G1                                               I feel a

-|----------------------------------------------------------------------------|
-|----------------------------------------------------------------------------|
-|----------------------------------------------------------------------------|
-|-10-10-10\-----------------10-10-10--10\------------------------------------|
-|-10-10-10\-----------------10-10-10--10\------------------------------------|
-|--8--8--8\------------------8--8--8---8\------------------------------------|
 G2

-|-------------------0-------0-------------------0-------0--------------------|
-|-------------------0-------0-------------------0-------0--------------------|
-|---------------2---0---2---0---------------2---0---2---0--------------------|
-|--7-7-7--7-----2-------2-------7--7--7-----2-------2------------------------|
-|--9-9-9--9-----4-------4-------9--9--9-----4-------4------------------------|
-|--7-7-7--7-----2-------2-------7--7--7-----2-------2------------------------|
 G1  Sickness            a sickness coming over me, like watching

-|----------------------------------------------------------------------------|
-|---------x-x--x-x--x-x-x-x---------x--x--x--x---------4--4p3----------------|
-|---------x-x--x-x--x-x-x-x---------x--x--x--x--3--3---3--3------------------|
-|--10\-------------------------10\--------------3--3-------------------------|
-|--10\-------------------------10\-------------------------------------------|
-|---8\--------------------------8\-------------------------------------------|
 G2

-|-------------------0-------0-----------------0-------0----------------------|
-|-------------------0-------0-----------------0-------0----------------------|
-|---------------2---0---2---0-------------2---0---2---0----------------------|
-|--7-7-7--7-----2-------2-------7---7-----2-------2--------------------------|
-|--9-9-9--9-----4-------4-------9---9-----4-------4--------------------------|
-|--7-7-7--7-----2-------2-------7---7-----2-------2--------------------------|
 G1 Freedom             being sucked straight out to sea, and the

-|----------------------------------------------------------------------------|
-|----------x-x--x-x--x-x-x-x---------x--x--x--x--3--3--x--3--3---------------|
-|----------x-x--x-x--x-x-x-x---------x--x--x--x--3--3--x--3--3---------------|
-|--10\-------------------------10\-------------------------------------------|
-|--10\-------------------------10\-------------------------------------------|
-|---8\--------------------------8\-------------------------------------------|
 G2

-|------------------0-------0---------------------0---------0-----------------|
-|------------------0-------0---------------------0---------0-----------------|
-|--------------2---0---2---0----------------2----0----2----0-----------------|
-|--7--7--7-----2-------2-------7--7--7------2---------2----------------------|
-|--9--9--9-----4-------4-------9--9--9------4---------4----------------------|
-|--7--7--7-----2-------2-------7--7--7------2---------2----------------------|
 G1 Solution?          well from me far would it be, but the

-|----------------------------------------------------------------------------|
-|-----------------------------------------------------3----------------------|
-|-----------5------5-----5--3------------5------3--------3-------------------|
-|--------5------5------5-------------/5------5------5------------------------|
-|----------------------------------------------------------------------------|
-|----------------------------------------------------------------------------|
 G2

-|-------------------0-------0---------------------------0-------0------------|
-|-------------------0-------0---------------------------0-------0------------|
-|---------------2---0---2---0-----------------------2---0---2---0------------|
-|---7--7--7-----2-------2-------7-7-7--7---x--x--x--2-------2----------------|
-|---9--9--9-----4-------4-------9-9-9--9---x--x--x--4-------4----------------|
-|---7--7--7-----2-------2-------7-7-7--7---x--x--x--2-------2----------------|
 G1 Delusion            is feeling dangerous to me         yeah

-|----------------------------------------------------------------------------|
-|-------------------------------------------------------------3--------------|
-|-------------5------5-----5--3--------------5--------3----------------------|
-|---------/5------5------5--------------/5--------5--------5-----------------|
-|----------------------------------------------------------------------------|
-|----------------------------------------------------------------------------|
 G2

-|------2---2---2---2---2---|-------------------------------------------------|
-|------0---0---0---0---0---|-------------------------------------------------|
-|------2---2---2---2---2---|-------------------------------------------------|
-|---0--0---0---0---0---0---|-------------------------------------------------|
-|---2----------------------|-------------------------------------------------|
-|--------------------------|-------------------------------------------------|
 G1         What goes wrong?

-|--------------------------|-------------------------------------------------|
-|----------1---------------|-------------------------------------------------|
-|-------2------------------|-------------------------------------------------|
-|---3----------------------|-------------------------------------------------|
-|--------------------------|-------------------------------------------------|
-|--------------------------|-------------------------------------------------|
 G2

-|----------------------------------------------------------------------------|
-|------------------------4---4--4----4---2--2--------------------------------|
-|---2-h4--4----4--2--4---0---0--0----0---0--0--------------------------------|
-|---0-----0----0--0--0---x---x--x----x---0--0--------------------------------|
-|---0-----0----0--0--0---5---5--5----5---------------------------------------|
-|----------------------------------------------------------------------------|
 G1         Walking tightrope high over moral ground

-|----------------------------------------------------------------------------|
-|------3--3----3-----3---8---8--8----8------8--------------------------------|
-|---5--3--3----3--5--3---8---8--8----8--10--8--------------------------------|
-|---3--3--3----3--3--3---8---8--8----8------8--------------------------------|
-|----------------------------------------------------------------------------|
-|----------------------------------------------------------------------------|
 G2

-|------------------------------------------------2---------------0--0--------|
-|------------------------4---4--4----4---2--2----0---0--0----0---0--0--------|
-|---2-h4--4----4--2--4---0---0--0----0---0--0----2---2--2----2---0--0--------|
-|---0-----0----0--0--0---x---x--x----x---0--0----0---0--0----0---------------|
-|---0-----0----0--0--0---5---5--5----5---------------------------------------|
-|----------------------------------------------------------------------------|
 G1          Seeing visions of falling up somehow          well do come down

-|----------------------------------------------------------------------------|
-|------3--3----3-----3---8---8--8----8---8--8---10-----10---10---------10----|
-|---5--3--3----3--5--3---8---8--8----8--10-10---10--10-10---10--12-12--10----|
-|---3--3--3----3--3--3---8---8--8----8---8--8---10--10-10---10--10-10--10----|
-|----------------------------------------------------------------------------|
-|----------------------------------------------------------------------------|
 G2

-|----------------------------------------------------------------------------|
-|------------------------4---4--4----4---2--2--------------------------------|
-|---2-h4--4----4--2--4---0---0--0----0---0--0--------------------------------|
-|---0-----0----0--0--0---x---x--x----x---0--0--------------------------------|
-|---0-----0----0--0--0---5---5--5----5---------------------------------------|
-|----------------------------------------------------------------------------|
             With the living, let what is living love

-|----------------------------------------------------------------------------|
-|------3--3----3-----3---8---8--8----8------8--------------------------------|
-|---5--3--3----3--5--3---8---8--8----8--10-10--------------------------------|
-|---3--3--3----3--3--3---8---8--8----8---------------------------------------|
-|----------------------------------------------------------------------------|
-|----------------------------------------------------------------------------|
 G2

-|------------------------------------------------2----2----------------------|
-|------------------------4---4--4----4---2--2----0----0------0----0--0-------|
-|---2-h4--4----4--2--4---0---0--0----0---0--0----2----2------2----2--2-------|
-|---0-----0----0--0--0---x---x--x----x---0--0----0----0------0----0--0-------|
-|---0-----0----0--0--0---5---5--5----5---------------------------------------|
-|----------------------------------------------------------------------------|
 G1         So forgiving yet needing forgiveness first well what do you say?

-|----------------------------------------------------------------------------|
-|------3--3----3-----3---8---8--8----8------8---10---10---------10-----------|
-|---5--3--3----3--5--3---8---8--8----8--10-10---10---10-10---12----10vvvvv---|
-|---3--3--3----3--3--3---8---8--8----8------8---10---------------------------|
-|----------------------------------------------------------------------------|
-|----------------------------------------------------------------------------|
 G2

-|---------------------------------|------------------------------------------|
-|---0--0--0---0----0---0--0--0----|------------------------------------------|
-|---2--2--2---2----2---2--2--2----|------------------------------------------|
-|---0--0--0---0----0---0--0--0----|------------------------------------------|
-|---------------------------------|------------------------------------------|
-|---------------------------------|------------------------------------------|
 G1               God, what do you say?

-|---------------------------------|------------------------------------------|
-|-------------------10--10--------|------------------------------------------|
-|-vvvvvvvvvvvvv-----10--10--------|------------------------------------------|
-|-------------------10--10--------|------------------------------------------|
-|---------------------------------|------------------------------------------|
-|---------------------------------|------------------------------------------|
 G2

-|----------------------------------------------------------------------------|
-|------------------------4---4--4----4---2--2--------------------------------|
-|---2-h4--4----4--2--4---0---0--0----0---0--0--------------------------------|
-|---0-----0----0--0--0---x---x--x----x---0--0--------------------------------|
-|---0-----0----0--0--0---5---5--5----5---------------------------------------|
-|----------------------------------------------------------------------------|
 G1                                    (play 8x)

-|----------------------------------------------------------------------------|
-|------3--3----3-----3---8---8--8----8---------------------------------------|
-|---5--3--3----3--5--3---8---8--8----8--10-10--------------------------------|
-|---3--3--3----3--3--3---8---8--8----8---------------------------------------|
-|----------------------------------------------------------------------------|
-|----------------------------------------------------------------------------|
                                         (play 8x)

-|------------------||--------------------------------------------------------|
-|---2--------------||--------------------------------------------------------|
-|---4--------------||--------------------------------------------------------|
-|---0--------------||--------------------------------------------------------|
-|---0--------------||--------------------------------------------------------|
-|------------------||--------------------------------------------------------|
 G1

-|------------------||--------------------------------------------------------|
-|---1--------------||--------------------------------------------------------|
-|---3--------------||--------------------------------------------------------|
-|---3--------------||--------------------------------------------------------|
-|------------------||--------------------------------------------------------|
-|------------------||--------------------------------------------------------|





Comments


Popular Pearl Jam tabs & chords
Garden 2 Bass Tabs
Habbit Bass Tabs
Even Flow (Solo) Tabs
Greendisease Tabs
Habit 1 Tabs
Hummus Tabs
Save You Tabs
Sirens 3 Tabs
Spin The Black Circle Tabs
I Cant Help Falling In Love With You Ukulele


Song lyrics



↑ Back to top | Tablatures and chords are parodies/interpretations of the original songs. You may use it for private study, scholarship, research or language learning purposes only
© 2014 AZChords.com Contact us | Privacy policy | DMCA | Add/correct tabs | Request tabs | Top 50 tabs