» » »

Love Boat Captain Bass tabs (ver.1)

Artists:  A B C D E F G H I J K L M N O P Q R S T U V W X Y Z # 

Love Boat Captain Bass tabs (ver.1)

Pearl Jam
Rating:
0/5 (0 votes)

Tabs too difficult? Try these video lessons and learn fast.
                Bassist: Jeff Ament

Don't come in until 0:41 ("Love Boat Captain...")

G|----------|--------|--------|5---5---|5---5---|--------|
D|2----2----|5---5---|--------|--------|--------|5---3---|
A|----------|--------|2---2---|--------|--------|--------|
E|----------|--------|--------|--------|--------|--------|

1:05 ("Is this just another phase...")

G|------------------|------------------| (x3)
D|------------------|55555555-33333333-|
A|33333333----------|------------------|
E|---------33333333-|------------------|

G|---------|
D|33333333-|
A|---------|
E|---------|

1:30 ("Hold me, and make...")

G|2222222-5555-0000-| (x6)
D|------------------|
A|------------------|
E|------------------|

G|--------|----33333333-|--------|----3333333333333333-|
D|3---3---|3------------|3---3---|3--------------------|
A|--------|-------------|--------|---------------------|
E|--------|-------------|--------|---------------------|

2:10 (It's an art to live with pain...")

G|------------------|------------------| (x3)
D|------------------|55555555-33333333-|
A|33333333----------|------------------|
E|---------33333333-|------------------|

G|---------|
D|33333333-|
A|---------|
E|---------|

2:35 ("And the young, they can...")

G|------------------|------------------|------------------|
D|22222222-22222222-|55555555-55555555-|22222222-22222222-|
A|------------------|------------------|------------------|
E|------------------|------------------|------------------|

G|------------------|------------------|------------------|
D|------------------|22222222-22222222-|------------------|
A|55555555-55555555-|------------------|55555555-55555555-|
E|------------------|------------------|------------------|

G|------------------|------------------|
D|------------------|------------------|
A|55555555-55555555-|------------------|
E|------------------|33333333-11111111-|

3:06 ("Hold me, and make...")

G|2222222-5555-0000-| (x11)
D|------------------|
A|------------------|
E|------------------|

G|--------|----3333333333333333-|5~~~~~~~~~|
D|3---3---|3--------------------|----------|
A|--------|---------------------|----------|
E|--------|---------------------|----------|

Let ring till end of song.

Any comments or concerns welcome.  Enjoy.
            
Tabs too difficult? Try these video lessons and learn fast.


comments powered by Disqus
↑ Back to top | Tablatures and chords are parodies/interpretations of the original songs. You may use it for private study, scholarship, research or language learning purposes only