» » »

Pearl Jam, Lions Share Tabs (ver.1)

Artists:  A B C D E F G H I J K L M N O P Q R S T U V W X Y Z # 

Lions Share Tabs (ver.1)

Pearl Jam Tabs
 Rating:
4/5 (4 votes)
Lions Share lessons Tabs too difficult? Try these video lessons and learn fast
                
cover of the Germs

Ok this is my first tab so go easy on me, thanks!

Intro 2x:
-|----------------------------------------------------------------------------|
-|----------------------------------------------------------------------------|
-|----------------------------------------------------------------------------|
-|--7--7-7--7--5-5--7-7-7--5-5-5-5--3-3--5-5-5--------------------------------|
-|--7--7-7--7--5-5--7-7-7--5-5-5-5--3-3--5-5-5--------------------------------|
-|--5--5-5--5--3-3--5-5-5--3-3-3-3--1-1--3-3-3--------------------------------|


Verse1:
-|----------------------------------------------------------------------------|
-|----------------------------------------------------------------------------|
-|----------------------------------------------------------------------------|
-|--7--7-7--7--5-5--7-7-7--5-5-5-5--3-3--5-5-5--------------------------------|
-|--7--7-7--7--5-5--7-7-7--5-5-5-5--3-3--5-5-5--------------------------------|
-|--5--5-5--5--3-3--5-5-5--3-3-3-3--1-1--3-3-3--------------------------------|

Chorus:

-|----------------------------------------------------------------------------|
-|----------------------------------------------------------------------------|
-|----------------------------------------------------------------------------|
-|-3-3-3-3-3-3--7-7-7-7-7-7--5-5-5-5-5-5--8-8-8-8-8-8-------------------------|
-|-3-3-3-3-3-3--7-7-7-7-7-7--5-5-5-5-5-5--8-8-8-8-8-8-------------------------|
-|-1-1-1-1-1-1--5-5-5-5-5-5--3-3-3-3-3-3--6-6-6-6-6-6-------------------------|

Interlude:
-|----------------------------------------------------|
-|----------------------------------------------------|
-|----------------------------------------------------|
-|-5-5-5-5--3-3--5-5-5--------------------------------|
-|-5-5-5-5--3-3--5-5-5--------------------------------|
-|-3-3-3-3--1-1--3-3-3--------------------------------|


Verse2:
-|----------------------------------------------------------------------------|
-|----------------------------------------------------------------------------|
-|----------------------------------------------------------------------------|
-|--7--7-7--7--5-5--7-7-7--5-5-5-5--3-3--5-5-5--------------------------------|
-|--7--7-7--7--5-5--7-7-7--5-5-5-5--3-3--5-5-5--------------------------------|
-|--5--5-5--5--3-3--5-5-5--3-3-3-3--1-1--3-3-3--------------------------------|

end on F5
            
Submit corrections

comments powered by Disqus
↑ Back to top | Pearl Jam Tabs for Lions Share. Lyrics for acoustic guitar and electric guitar. Tablatures and chords are parodies/interpretations of the original songs. You may use it for private study, scholarship, research or language learning purposes only