» » »

Life Wasted Tabs (ver.2)

Artists:  A B C D E F G H I J K L M N O P Q R S T U V W X Y Z # 

Life Wasted Tabs (ver.2)

Pearl Jam
Rating:
0/5 (0 votes)

Hard to play? Try these video lessons and learn fast.
                
This is a great song found on Pearl Jam's self-titled album. Written by Eddie and Stone, 
is truely one of their best songs. Enjoy!

Standard Tuning
Capo on 4th fret, strings 1-5


e|--------------------------------------------------------------------------|
B|---3---2--2--2------------------3---2--2--2-------------------------------|
G|---2---2--2--2---0---0--0--0----2---2--2--2---0---0--0--0--0--0--0--------|
D|---0---2--2--2---0---0--0--0----0---2--2--2---0---0--0--0--0--0--0--0-----|
A|-------0--0--0---3-/-5--5--5--------0--0--0---3-/-5--5--5--5--5--3--0-----|
E|--------------------------------------------------------------------------|
   Intro                                                            3x

e|--------------------------------------------------------------------------|
B|--------------------------------------------------------------------------|
G|--------------------------------------------------------------------------|
D|-----------------------------------------------5--5---5---5--5-5-5--------|
A|-----------------------------------------------3--2---3---3--3-3-3--------|
E|---2--2-0--2-0---2-0-2-0--2--2--2-0-2-0-2-0----0--0---0---0--0-0-0--------|
   Verse 1 (Play this part behind the capo)                         2x

e|--------------------------------------------------------------------------|
B|---3----2--2--2----3----2--2--2---3--2--2--2------------------------------|
G|---2----2--2--2----2----2--2--2---2--2--2--2----2-----0---0--0-0----------|
D|---0----2--2--2----0----2--2--2---0--2--2--2----2-----0---0--0-0----------|
A|--------0--0--0---------0--0--0------0--0--0----0-----x---x--x-x----------|
E|------------------------------------------------------3---3--3-3----------|
   Chorus                                                           3x

e|--------------------------------------------------------------------------|
B|---3---2--2--2-------------------3---2--2--2------------------------------|
G|---2---2--2--2-------------------2---2--2--2------------------------------|
D|---0---2--2--2-------------------0---2--2--2------------------------------|
A|-------0--0--0---3-/-5--5--5---------0--0--0---3-/-5--5--5--5--5--3--0----|
E|--------------------------------------------------------------------------|
   Verse 2                                                          3x

e|---------------------------------0----------------------------------------|
B|---0-----------------0-----------1---0-----------------------1------------|
G|---0-------0---------0-------0---0---0--------0--------------0------------|
D|---3-------2---------3-------2---2---3--------2--------------2------------|
A|---3-------3---------3-------3---3---3--------3------2-------3------------|
E|---1-------0---------1-------0---0---1--------0---------------------------|
   Bridge


Intro
Verse 1
Chorus
Verse 1
Verse 2
Bridge
Chorus 4x
Fade out with Verse 2

Play it Loud! Peace.
            
Hard to play? Try these video lessons and learn fast. | Correct




comments powered by Disqus
↑ Back to top | Tablatures and chords are parodies/interpretations of the original songs. You may use it for private study, scholarship, research or language learning purposes only