» » »

Pearl Jam, Life Wasted Tabs (ver.1)

Artists:  A B C D E F G H I J K L M N O P Q R S T U V W X Y Z # 

Life Wasted Tabs (ver.1)

Pearl Jam Tabs
Rating:
0/5 (0 votes)
Hard to play? Try these video lessons and learn fast.
                
/ slide up
\ slide down

Standard tuning


--|--------------------------------------------------------|--|---------------|
--|--------------------------------------------------------|--|---------------|
--|-11---6-6--6---------------11---6-6--6------------------|--|---------------|
--|-11---6-6--6---------------11---6-6--6------------------|--|---------------|
--|--------------7/9-9-9-9-9---------------7/9-9-9-9-9-7-4-|--|---------------|
--|--------------------------------------------------------|--|---------------|
   Intro/Verse


-----|------------------------------------------|-----------------------------|
-----|------------------------------------------|-----------------------------|
-----|------------------------------------------|-----------------------------|
-----|-x--x-x-x-x--x-x-x-x--x--x--x-x-x-x--x-x--|-----------------------------|
-----|-4--4-4-4-4--4-4-4-4--4--4--4-4-4-4--4-4--|-----------------------------|
-----|-2--2-0-2-0--2-0-2-0--2--2--2-0-2-0--2-0--|-----------------------------|
   Bridge



--|-------|-------------------------------------------------------------------|
--|-------|-------------------------------------------------------------------|
--|-1-----|-------------------------------------------------------------------|
--|-2-----|-------------------------------------------------------------------|
--|-2-----|-------------------------------------------------------------------|
--|-x-----|-------------------------------------------------------------------|
   Prechorus Chord

--|----------------|--|----------------|--------------------------------------|
--|----------------|--|----------------|--------------------------------------|
--|----11--6-6--6--|--|----------------|--------------------------------------|
--|-11-11--6-6--6--|--|-6-6--4-4--4-4--|--------------------------------------|
--|-9--------------|--|-4-4--2-2--2-2--|--------------------------------------|
--|-x--------------|--|-x-x--x-x--x-x--|--------------------------------------|


--|-x---|---------------------------------------------------------------------|
--|-4---|---------------------------------------------------------------------|
--|-4---|---------------------------------------------------------------------|
--|-6---|---------------------------------------------------------------------|
--|-7---|---------------------------------------------------------------------|
--|-x---|---------------------------------------------------------------------|
   Interlude Chord
            

comments powered by Disqus
↑ Back to top | Pearl Jam Tabs for Life Wasted. Lyrics for acoustic guitar and electric guitar. Tablatures and chords are parodies/interpretations of the original songs. You may use it for private study, scholarship, research or language learning purposes only