» » »

Pearl Jam, Let The Records Play Tabs (ver.2)

Artists:  A B C D E F G H I J K L M N O P Q R S T U V W X Y Z # 

Let The Records Play Tabs (ver.2)

Pearl Jam Tabs
Rating:
0/5 (0 votes)
Let The Records Play lessons Tabs too difficult? Try these video lessons and learn fast
                -----------------------------------------------------------------------------------
-----------------------------------------------------------------------------------
Tuning: DADAAD

D|-----0----0-----0----0-----0-----0-----0-----0---0-|
A|---------------------------------------------------|
A|-----------------------0h3---3/5---3p0-------------|
D|------------0h3--3/5---------------------0h3---0---|
A|-0h3--3/5------------------------------------------|
D|---------------------------------------------------|

|-----0----0-----0----0-----0-----0-----0-----0---0---------|
|-----------------------------------------------------------|
|-----------------------0h3---3/5---3p0---3/5---5/////17~~~-|
|------------0h3--3/5---------------------------------------|
|-0h3--3/5--------------------------------------------------|
|-----------------------------------------------------------|

|-----------------------0-0-|------------------------------0---|------------------------------0-0-|-0-0-|
|-----------------------5-5-|------------------------------5---|------------------------------5-5-|-5-5-|
|---------------------------|----------------------------------|----------------------------------|-----|
|-0-3-0--0-3-5-3-0-3-0------|-0-3-0--0-3-0--0-3-5-3-0-3-0------|-0-3-0--0-3-0--0-3-5-3-0-3-0------|-----|
|-0-3-0--0-3-5-3-0-3-0------|-0-3-0--0-3-0--0-3-5-3-0-3-0------|-0-3-0--0-3-0--0-3-5-3-0-3-0------|-----|
|-0-3-0--0-3-5-3-0-3-0------|-0-3-0--0-3-0--0-3-5-3-0-3-0------|-0-3-0--0-3-0--0-3-5-3-0-3-0------|-----|

|-1--1---3--3---|-1--1---3--3--|-1--1---3--3---|-3--3--3--3--3------|
|-1--1---3--3---|-1--1---3--3--|-1--1---3--3---|-3--3--3--3--3------|
|-3--1---5--3---|-3--1---5--3--|-3--1---5--3---|-3--5--3--5--6---8--|
|-1--1---3--3---|-1--1---3--3--|-1--1---3--3---|-3--3--3--3--3------|
|-3--1---5--3---|-3--1---5--3--|-3--1---5--3---|-3--5--3--5--6---8--|
|-1--1---3--3---|-1--1---3--3--|-1--1---3--3---|-3--3--3--3--3------|

|-----------------------0-0-|------------------------------0-0-|------------------------------0-0-|-0-0-|
|-----------------------5-5-|------------------------------5-5-|------------------------------5-5-|-5-5-|
|---------------------------|----------------------------------|----------------------------------|-----|
|-0-3-0--0-3-5-3-0-3-0------|-0-3-0--0-3-0--0-3-5-3-0-3-0------|-0-3-0--0-3-0--0-3-5-3-0-3-0------|-----|
|-0-3-0--0-3-5-3-0-3-0------|-0-3-0--0-3-0--0-3-5-3-0-3-0------|-0-3-0--0-3-0--0-3-5-3-0-3-0------|-----|
|-0-3-0--0-3-5-3-0-3-0------|-0-3-0--0-3-0--0-3-5-3-0-3-0------|-0-3-0--0-3-0--0-3-5-3-0-3-0------|-----|

|-1--1---3--3---|-1--1---3--3--|-1--1---3--3---|-3--3--3--3--3------|-3--3--3--3--3------|
|-1--1---3--3---|-1--1---3--3--|-1--1---3--3---|-3--3--3--3--3------|-3--3--3--3--3------|
|-3--1---5--3---|-3--1---5--3--|-3--1---5--3---|-3--5--3--5--6------|-3--5--3--5--6--8---|
|-1--1---3--3---|-1--1---3--3--|-1--1---3--3---|-3--3--3--3--3------|-3--3--3--3--3------|
|-3--1---5--3---|-3--1---5--3--|-3--1---5--3---|-3--5--3--5--6------|-3--5--3--5--6--8---|
|-1--1---3--3---|-1--1---3--3--|-1--1---3--3---|-3--3--3--3--3------|-3--3--3--3--3------|

|--------------------------------------|--------------------------------------|
|--------------------------------------|--------------------------------------|
|--------------------------------------|--------------------------------------|
|-8---10h12--10--8-----------------8---|-8---10h12--10--8-----------------8---|
|-8------------------10h11--10--9--8---|-8------------------10h11--10--9--8---|
|-8--------------------------------8---|-8--------------------------------8---|

|---------------------------------------|------0-----0-----0----0-----0-----0-----0-----0---0-------|
|---------------------------------------|-----------------------------------------------------------|
|---------------------------------------|-------------------------0h3---3/5---3p0-------------------|
|-8---10h12--10--8----------------------|--------------0h3--3/5---------------------0h3---0---------|
|-8------------------10h11--10--9-------|-0h3---3/5-------------------------------------------------|
|-8-------------------------------------|-----------------------------------------------------------|

|----------------------|----------------------|----------------------|----------------------|-0-0-|-0-0-|
|----------------------|----------------------|----------------------|----------------------|-5-5-|-5-5-|
|----------------------|----------------------|----------------------|----------------------|-----|-----|
|-0-3-0--0-3-5-3-0-3-0-|-0-3-0--0-3-5-3-0-3-0-|-0-3-0--0-3-5-3-0-3-0-|-0-3-0--0-3-5-3-0-3-0-|-----|-----|
|-0-3-0--0-3-5-3-0-3-0-|-0-3-0--0-3-5-3-0-3-0-|-0-3-0--0-3-5-3-0-3-0-|-0-3-0--0-3-5-3-0-3-0-|-----|-----|
|-0-3-0--0-3-5-3-0-3-0-|-0-3-0--0-3-5-3-0-3-0-|-0-3-0--0-3-5-3-0-3-0-|-0-3-0--0-3-5-3-0-3-0-|-----|-----|

||-1--1---3--3---|-1--1---3--3--|-1--1---3--3---|-3--3--3--3--3------||
||-1--1---3--3---|-1--1---3--3--|-1--1---3--3---|-3--3--3--3--3------||
|*-3--1---5--3---|-3--1---5--3--|-3--1---5--3---|-3--5--3--5--6------*|
|*-1--1---3--3---|-1--1---3--3--|-1--1---3--3---|-3--3--3--3--3------*|
||-3--1---5--3---|-3--1---5--3--|-3--1---5--3---|-3--5--3--5--6------||
||-1--1---3--3---|-1--1---3--3--|-1--1---3--3---|-3--3--3--3--3------||

|----------------------|----------------------|----------------------|----------------------|-0-0-|-0-0-|
|----------------------|----------------------|----------------------|----------------------|-5-5-|-5-5-|
|----------------------|----------------------|----------------------|----------------------|-----|-----|
|-0-3-0--0-3-5-3-0-3-0-|-0-3-0--0-3-5-3-0-3-0-|-0-3-0--0-3-5-3-0-3-0-|-0-3-0--0-3-5-3-0-3-0-|-----|-----|
|-0-3-0--0-3-5-3-0-3-0-|-0-3-0--0-3-5-3-0-3-0-|-0-3-0--0-3-5-3-0-3-0-|-0-3-0--0-3-5-3-0-3-0-|-----|-----|
|-0-3-0--0-3-5-3-0-3-0-|-0-3-0--0-3-5-3-0-3-0-|-0-3-0--0-3-5-3-0-3-0-|-0-3-0--0-3-5-3-0-3-0-|-----|-----|
            

comments powered by Disqus
↑ Back to top | Pearl Jam Tabs for Let The Records Play. Lyrics for acoustic guitar and electric guitar. Tablatures and chords are parodies/interpretations of the original songs. You may use it for private study, scholarship, research or language learning purposes only