» » »

Leash Bass tabs (ver.3)

Artists:  A B C D E F G H I J K L M N O P Q R S T U V W X Y Z # 

Leash Bass tabs (ver.3)

Pearl Jam
Rating:
0/5 (0 votes)

Hard to play? Try these video lessons and learn fast.
                *DROP D TUNING*

----------------------------------|
----------------------------------|
----------------------------------|
--9--4/7--------------------------|
troubled souls unite
weve got ourselves tonight

------------------------------------------------
------------------------------------------------
----------------7-7-7-7-7-7-7-7-----------------
-9-9-9-9-9-9-9-9---------------7-7-7-7-7-7-7----
young lover I stand.....

----------------------------------------------------------|
----------------------------------------------------------|
-----------------------------/8-8-8-8---------------------|
-9-9-9-10-11-12-7-10-10-10-10--------8-8-8-8-10-10-10-10--|
we got the means to make amends...i am right by your side

DROP THE LEASH


-get outta my f**kin face!
            
Hard to play? Try these video lessons and learn fast. | Correct




comments powered by Disqus
↑ Back to top | Tablatures and chords are parodies/interpretations of the original songs. You may use it for private study, scholarship, research or language learning purposes only