>
 >
Last Kiss 3

Last Kiss 3 Bass Tabs

Pearl Jam - Last Kiss 3 chords, tabs, tablatures, lyrics

Guitar lessons | Add/correct | Request | Top 50 tabs Artists:  A B C D E F G H I J K L M N O P Q R S T U V W X Y Z 0-9

Last Kiss 3 Bass Tabs – Pearl Jam

CD, Sheet music, Poster

Do you like Last Kiss 3? Share with your friends now
Bass TabsBass Tabs v2Bass Tabs v3ChordsChords v2Chords v3Chords v4Chords v5Chords v6Chords v7Chords v8Drum TabsDrum Tabs v2Drum Tabs v3TabsTabs v2Tabs v3Ukulele


tuning: standard
key: G
legend:

          x - dead note (slapping the string to the fretboard)
          \ - slide down
          h - hammer on
          p - pull off
          ~ - let the note ring


Verse:

G|----------------------------------------------------|
D|----------------------------------------------------| (4x)
A|---10-x-10-x-10\7--7-x-7~--7-5-3-x-3--3h5--5-x-5~---|
E|----------------------------------------------------|


chorus:


G|----------------------------------------------------|
D|----------------------------------------------------| (2x)
A|---10-x-10-9h10-9--7-x-7~--7\3-2-3--2h3--5-7-5~-----|
E|----------------------------------------------------|

repeat verse
repeat chorus

interlude 1:


G|-------------------------------------------------7~---|
D|--------------------------------5-----------4-5-------| (3x)
A|---10-x-10-12-10-9--7-7h9p7~--7---5-3--2h3------------|
E|------------------------------------------------------|


then


G|-------------------------------------------------7~--9-7----------|
D|--------------------------------5-----------4-5----------9-7------| 
A|---10-x-10-12-10-9--7-7h9p7~--7---5-3--2h3-------------------10~--|
E|------------------------------------------------------------------|

end
-----------------------------------------------------------------------------
-----------------------------------------------------------------------------
-----------------------------------------------------------------------------
start

actually... this song is played with only one progression...
and that progression is as simple as this:


G|-----------------------------------------|
D|-----------------------------------------|
A|--10-10--10---7-7--7---3-3--3---5-5--5---| 
E|-----------------------------------------|

but to make it clearer for beginners,hmmm...


 ---------------------
|       CHORUS        |
 ---------------------


G|-----------------------------------------|
D|-----------------------------------------| (2x)
A|--10-10--10---7-7--7---3-3--3---5-5--5---| 
E|-----------------------------------------|


 ---------------------
|       VERSE         |
 ---------------------


G|-----------------------------------------|
D|-----------------------------------------| (4x)
A|--10-10--10---7-7--7---3-3--3---5-5--5---| 
E|-----------------------------------------|


REPEAT CHORUS
REPEAT VERSE

REPEAT CHORUS



 ---------------------
|       OUTRO         |
 ---------------------


G|-----------------------------------------|
D|-----------------------------------------| (4x)
A|--10-10--10---7-7--7---3-3--3---5-5--5---| 
E|-----------------------------------------|



End with

G|---------------|
D|---------------|
A|---10~~~-------|
E|---------------|

_______________________________________________________________________________________________

ooops...that's all...btw,this is the way i play the bass for this song...i think it's nice so
i just wanna share this with you guys! I added other variations so we could make the song more 
exciting! XD

_______________________________________________________________________________________________

DROPDEAD 1214182227
SEE 'YA! \m/





Comments


Popular Pearl Jam tabs & chords
Jeremy 2 Bass Tabs
Smile Bass Tabs
Wishlist 1 Bass Tabs
Animal Drum Tabs
Spin The Black Circle Drum Tabs
Army Reserve Tabs
Last Kiss Tabs
Off He Goes Intro Tabs
Got Some Ukulele
Red Mosquito Ukulele


Song lyrics



↑ Back to top | Tablatures and chords are parodies/interpretations of the original songs. You may use it for private study, scholarship, research or language learning purposes only
© 2014 AZChords.com Contact us | Privacy policy | DMCA | Add/correct tabs | Request tabs | Top 50 tabs