» » »

Pearl Jam, Just Breathe Tabs (ver.5)

Artists:  A B C D E F G H I J K L M N O P Q R S T U V W X Y Z # 

Just Breathe Tabs (ver.5)

Pearl Jam Tabs
Rating:
0/5 (0 votes)
Just Breathe lessons Tabs too difficult? Try these video lessons and learn fast
                -----------------------------------------------------------------------------
-----------------------------------------------------------------------------

Tuning:EADGBe
Each bar below is 4 beats.

Intro and verses pattern
e|--------------------3--------3-------|--0-------0--------3------5------|
B|--1--------1------------1----------1-|------1--------1-------1---------|
G|------0---------0-----0---------0----|----0--------0-------0------0----|
D|----2---------2----------------------|---------------------------------|
A|--3------3----------3------3---------|--3------3---------3------3------|
E|-------------------------------------|---------------------------------|


|------------------------------------|----------------------------------|
|--3--------3--------5---------5-----|--3--------3--------0-------3-----|
|------0---------0-------0---------0-|------0---------0-------0-------0-|
|----0---------0-------0---------0---|----0---------0-------------------|
|------------------------------------|----------------------------------|
|--3-------3---------3-------3-------|--3-------3---------3-------3-----|


Stay with me
|--------------------3--------3-------|--0-------0-------3--------3----|
|--1--------1------------1----------1-|------1-------1-------1-------1-|
|------2---------2-----2---------2----|----2-------2-------2-------2---|
|----2---------2----------------------|--------------------------------|
|--0------0----------0------0---------|--0------0--------0------0------|
|-------------------------------------|--------------------------------|

Let's Just Breathe              
|-1--------1--------3--------3------|--1--------1--------1-------0------|
|------1--------1--------1--------1-|-------1--------1------1-----------|
|----2-------2---------2-------2----|-----2-------2------------------2--|
|-3------3----------3------3--------|--3------3----------3-------3------|
|-----------------------------------|-----------------------------------|
|-----------------------------------|-----------------------------------|


You're all I see...
|-1--------1--------3--------3------|--1--------1--------1-------0------|
|------1--------1--------1--------1-|-------1--------1------1-----------|
|----2-------2---------2-------2----|-----2-------2------------------2--|
|-3------3----------3------3--------|--3------3----------3-------3------|
|-----------------------------------|-----------------------------------|
|-----------------------------------|-----------------------------------|


(Chorus) Did I say... 
|--3---------3-------3---------3-----|--1---------1-------1-------1-----|
|-------3--------3--------3--------3-|-------3--------3--------3------3-|
|-----0--------0--------0--------0---|-----2--------2--------2------2---|
|------------------------------------|--0-------0---------0------0------|
|------------------------------------|----------------------------------|
|--3-------3---------3-------3-------|----------------------------------|x2


Oh if I didn't...
|--1--------1--------1--------1------|--0--------0--------0-------0-----|
|-------1--------1--------1--------1-|-------1--------1--------1------1-|
|-----2-------2---------2-------2----|-----2-------2---------2------2---|
|--3------3----------3------3--------|----------------------------------|
|------------------------------------|--0------0----------0------0------|
|------------------------------------|----------------------------------|

No one knows this more than me
|--1--------1--------1--------1------|--1---------1-------1---------1----|
|-------3--------3--------3--------3-|-------3--------3-------3--------3-|
|-----2-------2---------2-------2----|-----0--------0-------0--------0---|
|--0------0--------------------------|-----------------------------------|
|--------------------3------3--------|--2-------2---------2------2-------|
|------------------------------------|-----------------------------------|

As I come clean
|----------0---------1------0-------|
|--3--------------------------------|
|------0-------0---------0------0---|
|-----------------------------------|
|-----------------------------------|
|--3-------3---------3------3-------|


Nothing you would take
|--------------------3--------3-------|--0-------0-------3--------3----|
|--1--------1------------1----------1-|------1-------1-------1-------1-|
|------2---------2-----2---------2----|----2-------2-------2-------2---|
|----2---------2----------------------|--------------------------------|
|--0------0----------0------0---------|--0------0--------0------0------|
|-------------------------------------|--------------------------------|

Everything you gave             
|-1--------1--------3--------3------|--1--------1--------1-------0------|
|------1--------1--------1--------1-|-------1--------1------1-----------|
|----2-------2---------2-------2----|-----2-------2------------------2--|
|-3------3----------3------3--------|--3------3----------3-------3------|
|-----------------------------------|-----------------------------------|
|-----------------------------------|-----------------------------------|


Hold me 'til I die
|--------------------3--------3-------|--0-------0-------3--------3----|
|--1--------1------------1----------1-|------1-------1-------1-------1-|
|------2---------2-----2---------2----|----2-------2-------2-------2---|
|----2---------2----------------------|--------------------------------|
|--0------0----------0------0---------|--0------0--------0------0------|
|-------------------------------------|--------------------------------|

Meet you on the other side              
|-1--------1--------3--------3------|--1--------------------------------|
|------1--------1--------1----------|-----------------------------------|
|----2-------2---------2-------2----|-----------------------------------|
|-3------3----------3------3--------|--3--------------------------------|
|-----------------------------------|-----------------------------------|
|-----------------------------------|-----------------------------------|
            
Submit corrections

comments powered by Disqus
↑ Back to top | Pearl Jam Tabs for Just Breathe. Lyrics for acoustic guitar and electric guitar. Tablatures and chords are parodies/interpretations of the original songs. You may use it for private study, scholarship, research or language learning purposes only