>
 >
Johnny Guitar

Johnny Guitar Guitar Tabs

Pearl Jam - Johnny Guitar chords, tabs, tablatures, lyrics

Guitar lessons | Add/correct | Request | Top 50 tabs Artists:  A B C D E F G H I J K L M N O P Q R S T U V W X Y Z 0-9

Johnny Guitar Guitar Tabs – Pearl Jam

CD, Sheet music, Poster

Do you like Johnny Guitar? Share with your friends now
Tabs

x = muted note
/ = slide
h = hammer-on

Intro:

Guitar 1 - Listen to the track for the rhythm
|---------------------------|
|---------------------------|
|-----------5---------------|2x
|-7----2----5----3---12-----|
|-7----2----3----3---12-----|
|-5----0---------1---10-----|

Guitar 2
|----------------------------|-------------------------------|
|----------------------------|-------------------------------|
|-9----9----9----10---7------|-9----9----9----10---7----7----|
|-7----9----10---10---7------|-7----9----10---10---7----7----|
|----------------------------|-------------------------------|
|----------------------------|-------------------------------|

Verse 1:

Guitar 1
|-------------------------------|
|--------------------------5----|
|-10-10-10----7-7-7--------6----|4x
|-10-10-10----7-7-7---5/7-------|
|-8--8--8-----5-5-5-------------|
|-------------------------------|

Guitar 2
|-------------------------------|
|-------------------------------|
|-10-10-10----7-7-7-------------|4x
|-10-10-10----7-7-7---5/7--7----|
|-8--8--8-----5-5-5---5/7--7----|
|---------------------3/5--5----|

Guitar 1
|-------------------------------|-------------------|
|--------------------------3----|-3-3-3---1-1--5----|
|-10-10-10----7-7-7-------------|-4-4-4---2-2--6----|
|-10-10-10----7-7-7---3/5-------|-5-5-5---3-3--7----|
|-8--8--8-----5-5-5-------------|-------------------|
|-------------------------------|-------------------|

Guitar 2
|-------------------------------|-------------------|
|-------------------------------|-------------------|
|-10-10-10----7-7-7-------------|-4-4-4---2-2--6----|
|-10-10-10----7-7-7---5-5--5----|-5-5-5---3-3--7----|
|-8--8--8-----5-5-5---5-5--5----|-5-5-5---3-3--7----|
|---------------------3-3--3----|-3-3-3---1-1--5----|

Verse 2:

Guitar 1
|-------------------------------|
|--------------------------5----|
|-10-10-10----7-7-7--------6----|4x
|-10-10-10----7-7-7---5/7-------|
|-8--8--8-----5-5-5-------------|
|-------------------------------|

Guitar 2 - With wah wah
|-------------------------------|
|-------------------------------|
|-------------------------------|4x
|-------------------------------|
|-8--8--8-----9-9-9---5/7--7----|
|---------------------3/5--5----|

Guitar 1
|-------------------------------|
|--------------------------3----|
|-10-10-10----7-7-7-------------|
|-10-10-10----7-7-7---3/5-------|
|-8--8--8-----5-5-5-------------|
|-------------------------------|

Guitar 2 - With wah wah
|-------------------------------|
|-------------------------------|
|-------------------------------|
|-------------------------------|
|-8--8--8-----9-9-9---10-10-10--|
|-------------------------------|

Bridge 1:

Both guitars
|-----------------------------------------------------|
|-----------------------------------------------------|
|-10-10-10---7-7-7---5-5-5---------7-7-7--------------|
|-10-10-10---7-7-7---5-5-5--5-5-5--7-7-7--5-5--7------|
|-8--8--8----5-5-5---3-3-3--5-5-5--5-5-5--5-5--7------|
|---------------------------3-3-3---------3-3--5------|

Bridge 2:

Guitar 1 - Play muted notes with wah wah - Second group of muted notes is not 
played the first time
|-------------------------------------------------------|
|-------------------------------------------------------|
|----------------x-x-x-x-x-x----------------x-x-x-x-x-x-|4x
|----------------x-x-x-x-x-x----------------x-x-x-x-x-x-|
|----------------x-x-x-x-x-x----------------x-x-x-x-x-x-|
|-5-3--3-5--5-3--------------3-5--5-3--3-5--------------|

Guitar 2 - With wah wah
|-----------------------------------------------------|
|-----------------------------------------------------|
|-----------------------------------------------------|4x
|-----------------------------------------------------|
|-----------------------------------------------------|
|-5-3--3-5--5-3--------------3-5--5-3--3-5------------|


Verse 3:

Same as verse 2

Bridge 1 again

Outro:

Guitar 1 - Listen to the track for the rhythm
|---------------------10-----|
|---------------------10-----|
|-----------5---------x------|6x
|-7----2----5----3----12-----|
|-7----2----3----3----12-----|
|-5----0---------1----10-----|

Guitar 2
|----------------------------|
|----------------------------|
|-9----9----9----10---7------|3x
|-7----9----10---10---7------|
|----------------------------|
|----------------------------|

|-5-----5-----5-----5h7---|
|----5-----5-----5--------|
|-------------------------|Repeat until the end
|-------------------------|
|-------------------------|
|-------------------------|

Guitar 3 - Play this the 1st, 4th, 5th and 6th time guitar 1 plays its part
|--------------------------------|
|--------------------------------|
|--------------------------------|
|-7------------------------------|
|-7---------------0-2-3-4-5------|
|-5------------------------------|





Comments


Popular Pearl Jam tabs & chords
Brain Of J Bass Tabs
Deep Bass Tabs
Light Years Bass Tabs
Let My Love Chords
The End 2 Chords
The Fixer Chords
Thin Air 2 Chords
Soildier Of Love Tabs
Trouble 1 Tabs
Who You Are 1 Tabs


Song lyrics



↑ Back to top | Tablatures and chords are parodies/interpretations of the original songs. You may use it for private study, scholarship, research or language learning purposes only
© 2014 AZChords.com Contact us | Privacy policy | DMCA | Add/correct tabs | Request tabs | Top 50 tabs