>
 >
Jeremy 4

Jeremy 4 Guitar Tabs

Pearl Jam - Jeremy 4 chords, tabs, tablatures, lyrics

Guitar lessons | Add/correct | Request | Top 50 tabs Artists:  A B C D E F G H I J K L M N O P Q R S T U V W X Y Z 0-9

Jeremy 4 Guitar Tabs – Pearl Jam

CD, Sheet music, Poster

Do you like Jeremy 4? Share with your friends now
Bass TabsBass Tabs v2Bass Tabs v3ChordsChords v2Chords v3Chords v4Chords v5Drum TabsTabsTabs v2Tabs v3Tabs v4Tabs v5Tabs v6UkuleleUkulele v2

Words and Music by Jeff Ament & Eddie Vedder


Gtr I (E A D G B E) - 'Stone Gossard - Rhythm clean electric w/compression & tremolo'
Gtr II (E A D G B E) - 'Stone Gossard - Rhythm w/dist'
Gtr III (E A D G B E) - 'Mike McCready - Rhythm / Lead w/dist'
Gtr IV (E A D G B E) - 'Mike McCready & Stone Gossard - Rhythm clean electric'
Gtr V (E A D G B E) - 'Mike McCready - Rhythm w/dist'

Intro
  Q=92
 4/4
  Gtr I
  Q.     Wx6          H.      E E   E E E E E E S S E
|------|------------|-------------|---------0---------||
|------|------------|-------------|---0-0-0-0---------||
|------|------------|---------0-0-|-0-0-0-0-0---------||
|------|------------|-------------|-------------------||
|------|------------|-------------|-----------0-5h7-0-||
|------|------------|-------------|-------------------||


   Verse 1
    Faster Q=104
    Q  E E +H       +H     +E  E S S E   Q  E E +H
||----------------|--------------------|------0-(0)----|
||o---------------|--------------------|------0-(0)----|
||----------------|--------------------|------6-(6)----|
||--7----5-(5)----|-(5)----(5)---------|-7----7-(7)----|
||o----0----------|------------0-5h7-0-|----0----------|
||----------------|--------------------|---------------|
 |-Rhy Fig 1

 1.                      2.
                                     Gtrs II, III
  +H     +E  E S S E       H     +E   E S S E
|-(0)----(0)----------||--(0)----(0)-----------||
|-(0)----(0)---------o||--(0)----(0)-----------||
|-(6)----(6)----------||--(6)----(6)-----------||
|-(7)----(7)----------||--(7)----(7)-----------||
|------------0-5h7-0-o||--------------0-5h7-0--||
|---------------------||-----------------------||
                                 end Rhy Fig 1-|

 Pre-Chorus
  $
  Q  E E +Q   E E   H    +E  E S S E
|-----------------|------------------|
|-------------0---|------------------|
|-9----7-(7)--0---|-7----(7)---------|
|-7----5-(5)------|-4----(4)---------|
|-0--0----------0-|----------0-5h7-0-|
|-----------------|------------------|


  Q  E E +H        S   S  S  S  E  E  +E   E Q
|---------------|-12-----------12------------0---|
|---------------|-12h=14p12-------12-(12)----0---|
|-7----9-(9)----|-(9)-------14------------14-0---|
|-5----7-(7)----|-(7)------------------------0---|
|----0----------|--------------------------------|
|---------------|--------------------------------|


                  +H.                        Q
  Q  E E +Q.   E   H    +E  E S S E   Q  E E +H
|----------------|------------------|---------------|
|----------------|------------------|---------------|
|-9----7-(7)-----|-7----(7)---------|-7----9-(9)----|
|-7----5-(5)-----|-4----(4)---------|-5----7-(7)----|
|-0--0---------0-|----------0-5h7-0-|----0----------|
|----------------|------------------|---------------|


                           To Coda
   S   S  S  S  E  E  +E   Q.
|-12-----------12-------------------||
|-12h=14p12-------12-(12)-----------||
|-(9)-------14--------(9)-14--------||
|-(7)-----------------(7)-----------||
|--------------------------0--5-7p0-||
|-----------------------------------||


  +H                  +E   E  S S E
   Chorus
    Gtr II
     E  Q.        +Q      Q      Q.    E  +Q    Q          W
||---0--1---------(1)-----1--|--------------------------|-------------------------------|
||o--0--1---------(1)-----1--|---3----------------------|-------------------------------|
||---0--0---------(0)-----0--|---2-----4--(4)---5\------|--2----------------------------|
||---7--3---------(3)-----3--|---0-----2--(2)---3\------|--2----------------------------|
||o--0-----------------------|---0-----2--(2)---3\------|--0----------------------------|
||---------------------------|--------------------------|-------------------------------|
||-Rhy Fig 2A
|
|   Gtr III
|    E  E   E  E  +E   E  Q     +Q.    E  +Q    E  S  S    S  S  S  S  E  E  +E   Q   E
||--12-12-----12-(12)--------|-----------------12-------|-12----------12-------------12-|
||o-12-13-----13-(13)-13-----|-----------------13p12----|-12h14p12----14-12-(12)--------|
||---------14-14-(14)----14--|-(14)---14-(14)--------14-|----------14------------14-----|
||---------------------------|--------------------------|-------------------------------|
||o--------------------------|--------------------------|-------------------------------|
||---------------------------|--------------------------|-------------------------------|
 |-Rhy Fig 2

 1.                                    2.
  +H                 +E   E  S S E       H     +E  E S S E
|-----------------------------------||-----------------------||
|----------------------------------o||-----------------------||
|-(2)----------------(2)------------||--(2)----(2)-----------||
|-(2)----------------(2)------------||--(2)----(2)-----------||
|-(0)----------------(0)--0--5h7-0-o||--(0)----(0)-0-5h7-0---||
|-----------------------------------||-----------------------||
|                    end Rhy Fig 2A-|
|
|  S  S  S  S  E  E  +E   E  Q           W
|-12----------12------------12------||-----------------------||
|-12h14p12----14-12-(12)-----------o||-----------------------||
|----------14------------14---------||-----------------------||
|-----------------------------------||-----------------------||
|----------------------------------o||-----------------------||
|-----------------------------------||-----------------------||
                      end Rhy Fig 2-|

   Verse 2
    Gtr I
    Q  E E +H       +H     +E  E S S E   Q  E E +H       +H     +E  E S S E
||----------------|--------------------|------0-(0)----|-(0)----(0)-----------||
||o---------------|--------------------|------0-(0)----|-(0)----(0)----------o||
||----------------|--------------------|------6-(6)----|-(6)----(6)-----------||
||--7----5-(5)----|-(5)----(5)---------|-7----7-(7)----|-(7)----(7)-----------||
||o----0----------|------------0-5h7-0-|----0----------|------------0-5h7-0--o||
||----------------|--------------------|---------------|----------------------||


w/Rhy Fig 1
  Gtr IV
                      |-3--|
   E. S E E +H        E  E E +Q    E  E S S E
|------------------|-^3h=5p3-(3)--------------|
|-10------8-(8)----|-^3-----------------------|
|------------------|-^4-----------------------|
|--7--7---5-(5)----|-^5-----------------------|
|-------0----------|-^0---------------0-5h7-0-|
|------------------|--------------------------|


  E. S +E  E +H        S  E S +S  S E +E  E S S E
|----------5-(5)----|--5----5-(5)-5-5-(5)----------|
|----5-(5)-5-(5)----|--5----5-(5)-5-5-(5)----------|
|----6-(6)-6-(6)----|--6h=7-7-(7)-7-6-(6)----------|
|-7-----------------|------------------------------|
|-------------------|---------------------0-5h7-0--|
|-------------------|------------------------------|


  Q  E E +H        H     +E  E S S E
|---------------|--3-----(3)---------|
|---------------|--3-----(3)---------|
|---------------|--4-----(4)---------|
|-7----5-(5)----|--------------------|
|----0----------|------------0-5h7-0-|
|---------------|--------------------|


                                            D.S. al Coda
  E. S E E +H        S  E S +S  S E +E  E S S E
|----5---5-(5)----|--5----5-(5)-5-5-(5)---------||
|----5---5-(5)----|--5----5-(5)-5-5-(5)---------||
|----6---6-(6)----|--6h=7-7-(7)-7-6-(6)---------||
|-7----7----------|-----------------------------||
|-----------------|---------------------0-5h7-0-||
|-----------------|-----------------------------||


 Chorus
  &
        Rhy Fig 2 + 2A x2


w/Rhy Fig 2
   E  Q.        +Q      Q      Q.    E  +Q    Q
|--0--1---------(1)-----1--|--------------------------|
|--0--1---------(1)-----1--|---3----------------------|
|--0--0---------(0)-----0--|---2-----4--(4)---5-------|
|--7--3---------(3)-----3--|---0-----2--(2)---3-------|
|--0-----------------------|---0-----2--(2)---3-------|
|--------------------------|--------------------------|


                                Gtr I
   Q.             E  +H            Q.             E  +E   E  S S E
|-------------------------------|----------------------------------||
|-------------------------------|----------------------------------||
|--2--------------2--(2)--------|--2--------------2--(2)-----------||
|--2--------------2--(2)--------|--2--------------2--(2)---------5-||
|--0--------------0--(0)--------|--0--------------0--(0)--0--5h7---||
|-------------------------------|----------------------------------||


 Interlude
  Gtrs II, III
  ~    ~~~~~~                  ~~~~~~
  Q  E E +E  E S S E   E E S S E +E  E S S E
|--------------------|-----------------------|
|--------------------|-----------------------|
|--------------------|-----------------------|
|-7----5-(5)---------|-7-------5-(5)---------|
|----0-------0-5h7-0-|---0-5h7-------0-5h7-0-|
|--------------------|-----------------------|
|-Riff A                          end Riff A-|


Riff A x2


  ~    ~~~~~~            PM|
  Q  E E +E  E S S E   E E E E E E S S E
|--------------------|--------------------||
|--------------------|--------------------||
|--------------------|--------------------||
|-7----5-(5)---------|--------------------||
|----0-------0-5h7-0-|-0-0-0-0-0-0-5h7-0--||
|--------------------|--------------------||


 Chorus
  Gtr II
    E  Q.        +Q      Q       Q.    E  +Q    Q
|----------------------------|--------------------------|
|--10------------------------|--------------------------|
|-----10--------(10)----10\--|---2-----4--(4)---5-------|
|---7--0---------(0)---------|---0-----2--(2)---5-------|
|---0--8---------(8)-----8\--|---0-----2--(2)---3-------|
|----------------------------|--------------------------|
|
| Gtr III
|   E  E   E  E  +E   E  Q      +Q.    E  +Q..     T  T
|-^12--------12-(12)---------|--------------------------|
|-^13-13-------------13------|--------13-(13)--------13-|
|-^14-----14------------14---|-(14)---------------14----|
|----------------------------|--------------------------|
|----------------------------|--------------------------|
|----------------------------|--------------------------|


   Q.   E +H         Q.   E +E  E  S S E
|----------------|-----------------------|
|----------------|-----------------------|
|--2----4-(4)----|---5----7-(7)----------|
|--2-------------|-----------------------|
|--0----2-(2)----|---3----5-(5)-0--5h7-0-|
|----------------|-----------------------|
|
|  W                 H.            Q
|-12-------------|-^12-------------------|
|----------------|-^13------------13-----|
|----------------|-^14------------14-----|
|----------------|-----------------------|
|----------------|-----------------------|
|----------------|-----------------------|


   E  Q.        +E   E  E E     Q.    E  +Q      Q
|---------------------------|--------------------------|
|-10--8---------(8)--8--8---|---3----------------------|
|---------------------------|---2-----4--(4)-----5\----|
|--7--5---------(5)--5--5---|---0-----2--(2)-----------|
|--0----------------------0-|---0-----2--(2)-----3\----|
|---------------------------|--------------------------|
|
|  E  E   E  E  +E   E  Q      +Q.    E  +E   E  E   E
|-12-12-----12-(12)---------|--------12-(12)-----------|
|-12-13-------------13------|--------13-(13)-----------|
|--------14------------14---|-(14)-----------14-14--14-|
|---------------------------|--------------------------|
|---------------------------|--------------------------|
|---------------------------|--------------------------|


   W                               H                 +E   E S S  E
|-------------------------------|-----------------------------------|
|-------------------------------|-----------------------------------|
|--2----------------------------|--2-----------------(2)------------|
|--2----------------------------|--2-----------------(2)------------|
|--0----------------------------|--0-----------------(0)--0-5h7--0--|
|-------------------------------|-----------------------------------|
|
|  S  S  S  S  E  E  +E   Q   E    S  S  S  S  E  E  +E   Q      E
|-12----------12----------------|-------------12--------------------|
|-12h14p12-------12-(12)--------|-12h14p12----14-12-(12)------------|
|----------14------------14--14-|----------14------------14-----14--|
|-------------------------------|-----------------------------------|
|-------------------------------|-----------------------------------|
|-------------------------------|-----------------------------------|


   E  Q.      +E   E  Q       Q.      E  +Q      Q
|-------------------------|-------------------------|
|-10----------------------|---3---------------------|
|----10------(10)-10-10\--|---2-------4--(4)-----5--|
|--7----------------------|---0-------2--(2)-----3--|
|--0--8-------(8)--8--8\--|---0-------2--(2)-----3--|
|-------------------------|-------------------------|
|
|  E  Q    E  +E   E  Q      +Q    E  E  +E   E  Q
|-12------12-(12)---------|----------12-(12)--------|
|-13-13---13-(13)-13------|-------13-13-(13)-13-----|
|----14--------------14---|-(14)----------------14--|
|-------------------------|-------------------------|
|-------------------------|-------------------------|
|-------------------------|-------------------------|


   W                              +H                 +E   E S S  E
|-------------------------------|-----------------------------------|
|-------------------------------|-----------------------------------|
|--2----------------------------|-(2)----------------(2)------------|
|--2----------------------------|-(2)----------------(2)------------|
|--0----------------------------|-(0)----------------(0)--0-5h7--0--|
|-------------------------------|-----------------------------------|
|
|  S  S  S  S  E  E  +E   Q   E    S  S  S  S  E  E  +E   Q      E
|-------12----12----------------|-------------12--------------------|
|-12h14-------14-12-(12)--------|-12h14p12----14-12-(12)------------|
|----------14------------14--14-|----------14------------14-----14--|
|-------------------------------|-----------------------------------|
|-------------------------------|-----------------------------------|
|-------------------------------|-----------------------------------|


   E     Q.        +E   E  Q       Q.    E  +Q      E  E
|------------------------------|-------------------------|
|-10-----8---------(8)--8--8\--|---3---------------------|
|------------------------------|---2-----4--(4)-----5----|
|--7-----5---------(5)--5--5\--|---0-----2--(2)----------|
|--0---------------------------|---0-----2--(2)-----3--0-|
|------------------------------|-------------------------|
|
|  S  S  E   E  E  +E   E  Q      +Q.    E  +E   E  E  E
|-12-----------12-(12)---------|--------12-(12)-12----12-|
|-12h13-----13---------13------|--------13-(13)----13----|
|-------14----------------14---|-(14)--------------------|
|------------------------------|-------------------------|
|------------------------------|-------------------------|
|------------------------------|-------------------------|


   W                            H           +E   E  S S  E
|---------------------------|------------------------------|
|---------------------------|------------------------------|
|--2------------------------|---2-----------(2)------------|
|--2------------------------|---2-----------(2)------------|
|--0------------------------|---0-----------(0)--0--5h7--0-|
|---------------------------|------------------------------|
|
|  E  E  E  E  +E   E  E  E    +E   E  E  E  E   E  E    E
|----12----12-(12)-12----12-|-(12)-12----12----------------|
|-13-------13-(13)-13----13-|-(13)-13-------13--13-13---13-|
|-------14------------14----|---------14--------14-14---14-|
|---------------------------|------------------------------|
|---------------------------|------------------------------|
|---------------------------|------------------------------|


    E   Q.      +E   E  Q       Q.        E  +Q         E  E
|----------------------------|-------------------------------|
|--10------------------------|--3----------------------------|
|------10------(10)-10-10----|--2---------4--(4)--------5----|
|---7------------------------|--0---------2--(2)-------------|
|---0---8-------(8)--8--8----|--0---------2--(2)--------3--0-|
|----------------------------|-------------------------------|
|
|  +E   Q    E  +E   E  E  E    E   E  E  E  +S   S  E  E  E
|-----------12-(12)-------12-|----------------------12----12-|
|-(13)------13-(13)-13----13-|-13-----13---------13-13----13-|
|-(14)-14--------------14----|-----14----14-(14)-------14----|
|----------------------------|-------------------------------|
|----------------------------|-------------------------------|
|----------------------------|-------------------------------|


   W                        +H           +E   E  S S  E
|-------------------------|-----------------------------||
|-------------------------|-----------------------------||
|--2----------------------|-(2)----------(2)------------||
|--2----------------------|-(2)----------(2)------------||
|--0----------------------|-(0)----------(0)--0--5h7--3-||
|-------------------------|-----------------------------||
|
|  E  E  E  E  E  E  E  E    E   E  E  E  E   E  E    E
|-------12----12----------|--------12--------12---------||
|----13-------13----13----|-13-----13----13--13-13------||
|-14-14----14----14----14-|-----14----14-----14-14---14-||
|--0----------------------|-----------------------------||
|-------------------------|-----------------------------||
|-------------------------|-----------------------------||


 Outro
  Gtr II
   E   E  E  E  E   E   E  E    E   E  E  E  E   E   E  E
|-12-----12------------12----|-12-----12----12------12----|
|-13--13-13-13-13--13--13-13-|-13-----13-13-13--13--13----|
|-----14----14-14--14--------|-----14----14-----14-----14-|
|----------------------------|----------------------------|
|----------------------------|----------------------------|
|----------------------------|----------------------------|
|
| Gtrs I, III
|  Q.        E +E   Q.          Q.        E +E   Q.
|----------------------------|----------------------------|
|----------------------------|----------------------------|
|------------4-(4)--5--------|------------4-(4)--5--------|
|--7-------------------------|--7-------------------------|
|------------2-(2)--3--------|------------2-(2)--3--------|
|--5-------------------------|--5-------------------------|
|-Rhy Fig 3
|
| Gtr V
|  E   E  E  E  E   E   E  E    E   E  E  E  E   E   E  E
|----------------------------|----------------------------|
|----------------------------|----------------------------|
|-14--14----14-----14-----14-|-14--14----14-----14-----14-|
|----------------------------|----------------------------|
|-12--12----12-----12-----12-|-12--12----12-----12-----12-|
|----------------------------|----------------------------|
|-Rhy Fig 4

   E  E  E  E  +E   E  E  E    E   E  E  S  S  E   E  S  S  E
|-12----12-12-(12)-12-12----|---------------------------12----|
|-13-13-13-13-(13)-13-13-13-|-13-----13-13----13-----13-------|
|----14------------------14-|-----14-------14-----14-------14-|
|---------------------------|---------------------------------|
|---------------------------|---------------------------------|
|---------------------------|---------------------------------|
|
|  W                          +H              +E   E  S  S  E
|---------------------------|---------------------------------|
|---------------------------|---------------------------------|
|--2------------------------|-(2)-------------(2)-------------|
|--2------------------------|-(2)-------------(2)-------------|
|--0------------------------|-(0)-------------(0)--0--5h=7--0-|
|---------------------------|---------------------------------|
|                                               end Rhy Fig 3-|
|
|  E  E  E  E   E   E  E  E    E   E  E  E     E   E  E     E
|---------------------------|---------------------------------|
|---------------------------|---------------------------------|
|-14-14----14------14----14-|-----14----14--------14-------14-|
|---------------------------|---------------------------------|
|-12-12----12------12----12-|-----12----12--------12-------12-|
|---------------------------|---------------------------------|
                                                end Rhy Fig 4-|

w/Rhy Fig 3 + 4 x3
   E   Q    E  +E   E   E  E    E   E  E  E  E   E   E  E
|----------12-(12)-----12----|-----12----12-----12--------|
|-13--13---------------13----|-13-----13----13------------|
|-14---------------14-----14-|--------------14------14-14-|
|----------------------------|----------------------------|
|----------------------------|----------------------------|
|----------------------------|----------------------------|


   E  E  E  E  E  E  E  E    E   E  E  E  H
|-12----12----------------|-----12----------------------|
|-13-13-13----15-15-------|-13--13-13----13-------------|
|----14----14-14-14-14-14-|--------14-14-14-------------|
|-------------------------|-----------------------------|
|-------------------------|-----------------------------|
|-------------------------|-----------------------------|


        \0.5/   \1/  \1/  \1/  \1/  \1/  \1/    \1/  \1/   \1/   \1/  \1/   \1/   \1/   \1/
     E   +E     +E   +E   +E   +E   +E   +E      E   +E    +E    +E   +E    +E    +E    +E
||--------------------------------------------|----------------------------------------------|
||o-------------------------------------------|----------------------------------------------|
||--17--(17)---(17)-(17)-(17)-(17)-(17)-(17)--|-16--(16)--(16)--(16)-(16)--(16)--(16)--(16)--|
||--------------------------------------------|----------------------------------------------|
||o-15--(15)---(15)-(15)-(15)-(15)-(15)-(15)--|-14--(14)--(14)--(14)-(14)--(14)--(14)--(14)--|
||--------------------------------------------|----------------------------------------------|


  \1/  \1/  \1/  \1/  \1/  \1/  \1/  \1/    \1/   \1/   \1/   \1/   \1/   \1/   \1/   \1/
   E   +E   +E   +E   +E   +E   +E   +E      E    +E    +E    +E    +E    +E    +E    +E
|-----------------------------------------|-------------------------------------------------||
|-----------------------------------------|------------------------------------------------o||
|-14--(14)-(14)-(14)-(14)-(14)-(14)-(14)--|-14---(14)--(14)--(14)--(14)--(14)--(14)--(14)---||
|-----------------------------------------|-------------------------------------------------||
|-12--(12)-(12)-(12)-(12)-(12)-(12)-(12)--|-12---(12)--(12)--(12)--(12)--(12)--(12)--(12)--o||
|-----------------------------------------|-------------------------------------------------||

w/Rhy Fig 3 + Rhy Fig 4 x3
  \1/  \1/  \1/  \1/  \1/   \1/   \1/   \1/    \1/   \1/   \1/   \1/   \1/   \1/   \1/   \1/
   E   +E   +E   +E   +E    +E    +E    +E      E    +E    +E    +E    +E    +E    +E    +E
|--------------------------------------------|------------------------------------------------|
|--------------------------------------------|------------------------------------------------|
|-17--(17)-(17)-(17)-(17)--(17)--(17)--(17)--|-14---(14)--(14)--(14)--(14)--(14)--(14)--(14)--|
|--------------------------------------------|------------------------------------------------|
|-15--(15)-(15)-(15)-(15)--(15)--(15)--(15)--|-12---(12)--(12)--(12)--(12)--(12)--(12)--(12)--|
|--------------------------------------------|------------------------------------------------|


  \1/  \1/   \1/   \1/   \1/  \1/   \1/  \1/   \1/  \1/   \1/   \1/   \1/   \1/   \1/   \1/
   E   +E    +E    +E    +E   +E    +E   +E     E   +E    +E    +E    +E    +E    +E    +E
|--------------------------------------------|------------------------------------------------|
|--------------------------------------------|------------------------------------------------|
|-14--(14)--(14)--(14)--(14)-(14)--(14)-(14)-|-14--(14)--(14)--(14)--(14)--(14)--(14)--(14)---|
|--------------------------------------------|------------------------------------------------|
|-12--(12)--(12)--(12)--(12)-(12)--(12)-(12)-|-12--(12)--(12)--(12)--(12)--(12)--(12)--(12)---|
|--------------------------------------------|------------------------------------------------|


   \1/   \1/   \1/   \1/   \1/   \1/   \1/   \1/    \1/  \1/  \1/  \1/  \1/  \1/  \1/  \1/
   E    +E    +E    +E    +E    +E    +E    +E      E   +E   +E   +E   +E   +E   +E   +E
|------------------------------------------------|-----------------------------------------|
|------------------------------------------------|--8---(8)--(8)--(8)--(8)--(8)--(8)--(8)--|
|-14---(14)--(14)--(14)--(14)--(14)--(14)--(14)--|-----------------------------------------|
|------------------------------------------------|--5---(5)--(5)--(5)--(5)--(5)--(5)--(5)--|
|-12---(12)--(12)--(12)--(12)--(12)--(12)--(12)--|-----------------------------------------|
|------------------------------------------------|-----------------------------------------|


  \1/   \1/   \1/   \1/   \1/    \1/   \1/    \1/   \1/   \1/   \1/   \1/      \1/     \1/
   E    +E    +E    +E    +Q     +E    +E      E    +E    +E    +E    +Q       +E      +E
|-------------------------------------------|------------------------------------------------|
|-10---(10)--(10)--(10)--(10)---(10)--(10)--|-10---(10)--(10)--(10)--(10)-----(10)----(10)---|
|-------------------------------------------|------------------------------------------------|
|--7----(7)---(7)---(7)---(7)----(7)---(7)--|--7----(7)---(7)---(7)---(7)------(7)-----(7)---|
|-------------------------------------------|------------------------------------------------|
|-------------------------------------------|------------------------------------------------|



                        \1/   \1/                          \1/   \1/
   H.                  +E    +E      Q.       E  +E   E   +E    +E
|---------------------------------|----------------------------------|
|---------------------------------|----------------------------------|
|-14------------------(14)--(14)--|-14-------16-(16)-17--(17)--(17)--|
|---------------------------------|----------------------------------|
|-12------------------(12)--(12)--|-12-------14-(14)-15--(15)--(15)--|
|---------------------------------|----------------------------------|


   W                      Q.       E  +H
|----------------------|-----------------------------|
|----------------------|-----------------------------|
|-14-------------------|-14-------14-(14)------------|
|----------------------|-----------------------------|
|-12-------------------|-12-------12-(12)------------|
|----------------------|-----------------------------|

w/Rhy Fig 3
                   \1/   \1/                       \1/   \1/
   H.             +E    +E      Q.    E  +E   E   +E    +E
|----------------------------|-------------------------------|
|----------------------------|-------------------------------|
|-14-------------(14)--(14)--|-14----16-(16)-17--(17)--(17)--|
|----------------------------|-------------------------------|
|-12-------------(12)--(12)--|-12----14-(14)-15--(15)--(15)--|
|----------------------------|-------------------------------|


   W           Q.    E  +H
|-----------|------------------------|
|-----------|------------------------|
|-14--------|-14----14-(14)----------|
|-----------|------------------------|
|-12--------|-12----12-(12)----------|
|-----------|------------------------|


  \1/  \1/  \1/  \1/  \1/  \1/  \1/   \1/     \1/   \1/   \1/   \1/   \1/   \1/   \1/   \1/
   E   +E   +E   +E   +E   +E   +E    +E      +E    +E    +E    +E    +E    +E    +E    +E
|------------------------------------------|-------------------------------------------------|
|------------------------------------------|-------------------------------------------------|
|-19--(19)-(19)-(19)-(19)-(19)-(19)--(19)--|-(19)--(19)--(19)--(19)--(19)--(19)--(19)--(19)--|
|------------------------------------------|-------------------------------------------------|
|-17--(17)-(17)-(17)-(17)-(17)-(17)--(17)--|-(17)--(17)--(17)--(17)--(17)--(17)--(17)--(17)--|
|------------------------------------------|-------------------------------------------------|


  \1/  \1/  \1/  \1/  \1/   \1/   \1/   \1/     \1/   \1/  \1/   \1/   \1/   \1/   \1/   \1/
   E   +E   +E   +E   +E    +E    +E    +E      +E    +E   +E    +E    +E    +E    +E    +E
|--------------------------------------------|------------------------------------------------|
|--------------------------------------------|------------------------------------------------|
|-12--(12)-(12)-(12)-(12)--(12)--(12)--(12)--|-(12)--(12)-(12)--(12)--(12)--(12)--(12)--(12)--|
|--------------------------------------------|------------------------------------------------|
|-10--(10)-(10)-(10)-(10)--(10)--(10)--(10)--|-(10)--(10)-(10)--(10)--(10)--(10)--(10)--(10)--|
|--------------------------------------------|------------------------------------------------|


   \1/   \1/   \1/   \1/   \1/   \1/   \1/   \1/
   E    +E    +E    +E    +E    +E    +E    +E
|------------------------------------------------|
|------------------------------------------------|
|-14---(14)--(14)--(14)--(14)--(14)--(14)--(14)--|
|------------------------------------------------|
|-12---(12)--(12)--(12)--(12)--(12)--(12)--(12)--|
|------------------------------------------------|


                       2/4        4/4
  W          W          W          W
|----------|----------|----------|------*|





Comments


Popular Pearl Jam tabs & chords
Corduroy Pelvicthrust Bass Tabs
In My Tree Chords
Just Breathe 1 Chords
Sleeping By Myself 1 Chords
Daughter 5 Tabs
Love Boat Captain Tabs
Soldier Of Love Tabs
This Boy Tabs
Last Kiss Ukulele
Masters Of War Ukulele


Song lyrics



↑ Back to top | Tablatures and chords are parodies/interpretations of the original songs. You may use it for private study, scholarship, research or language learning purposes only
© 2014 AZChords.com Contact us | Privacy policy | DMCA | Add/correct tabs | Request tabs | Top 50 tabs