>
 >
Jeremy 3

Jeremy 3 Guitar Tabs

Pearl Jam - Jeremy 3 chords, tabs, tablatures, lyrics

Guitar lessons | Add/correct | Request | Top 50 tabs Artists:  A B C D E F G H I J K L M N O P Q R S T U V W X Y Z 0-9

Jeremy 3 Guitar Tabs – Pearl Jam

CD, Sheet music, Poster

Do you like Jeremy 3? Share with your friends now
Bass TabsBass Tabs v2Bass Tabs v3ChordsChords v2Chords v3Chords v4Chords v5Drum TabsTabsTabs v2Tabs v3Tabs v4Tabs v5Tabs v6UkuleleUkulele v2
#          "Jeremy" by Jeff Ament and Ed Vedder (Pearl Jam)                #
#                  As heard on the album "Ten" (1991)                      #

At the request of a member, here's the whole song without calling verything
fills. Basically the same as the "good one" but fixed harmonics and loose 
odds and ends. It's too bad that there's half a dozen versions already.

Guitar I    EADGBe Electric Clean with distortion pedal 
Guitar II   EADG   Electric Bass*
Guitar III  EADGBe Electric Flanger + pulse delay compression
Guitar IV   EADGBe Steel String Acoustic
Guitar V    EADG   Electric Bass (backing track at end)

*Intro and outro is actually a Twelve String Hamer Bass with multiple
overdubs. These were transcribed to two electric guitars and one regular
four string bass.

Track Length: 5:19:00
Tempo: 108 BPM

Intro 0:00

 G1 (Distorion set to 1 gain)
e|-----------------------------------|-----------------------------------|
B|-----------------------------------|-----------------------------------|
G|-----------------------------------|-----------------------------------|
D|---------7----5====================|---------7----5====================|
A|-0-5h7-0----0----------------------|-0-5h7-0----0----------------------|
E|-----------------------------------|-----------------------------------|

 G2
G|-----------------------------------|-----------------------------------|
D|---------7----5====================|---------7----5====================|
A|-0-5h7-0----0----------------------|-0-5h7-0----0----------------------|
E|-----------------------------------|-----------------------------------|

 G3 (Clean)
e|-----------------------------------|-----------------------------------|
B|-----------------------------------|-----------------------------------|
G|----------------------------<12>---|-----------------------------------|
D|----------------------<5>----------|-----------------------<5>---------|
A|-----------------------------------|-----------------------------<5>---|
E|-----------------------------------|-----------------------------------|



 G1                                     >     >     >
e|-----------------------------------|-----------------------------------|
B|-----------------------------------|-----------------------------------|
G|-----------------------------------|-----------------------------------|
D|---------7----5====================|---------7----5====================|
A|-0-5h7-0----0----------------------|-0-5h7-0----0----------------------|
E|-----------------------------------|-----------------------------------|

 G2
G|-----------------------------------|-----------------------------------|
D|---------7----5====================|---------7----5====================|
A|-0-5h7-0----0----------------------|-0-5h7-0----0----------------------|
E|-----------------------------------|-----------------------------------|

 G3
e|-----------------------------------|-----------------------------------|
B|-----------------------------------|-----------------------------------|
G|------------------------------0----|-----------------------------------|
D|------------------------<5>--------|-----------------------------------|
A|-----------------------------------|-<5>-------------------------------|
E|-----------------------------------|-----------------------------------|

 G4                                                           <  <  <  <
e|-----------------------------------|---------------------------5-5-5-0-|
B|-----------------------------------|---------------------------5-5-5-0-|
G|-----------------------------------|---------------------------6-6-6-0-|
D|-----------------------------------|-----------------------7-7-7-7-7-0-|
A|-----------------------------------|-------------------x-x-7-7-7-7-7-0-|
E|-----------------------------------|-------------------x-x-5-5-5-5-5-0-|

Verse 0:20

 G1+G3
e|-----------------------------------|-----------------------------------|
B|-----------------------------------|-----------------------------------|
G|--------------7--------------------|--------------6--------------------|
D|---------7----5--------------------|---------7----7--------------------|
A|-0-5h7-0----0-0--------------------|-0-5h7-0----0-0--------------------|
E|-----------------------------------|-----------------------------------|

 G2
G|-----------------------------------|-----------------------------------|
D|---------7----5----------7-------5-|---------7----5----------7-------5-|
A|-0-5h7p0----0----0-5h7p0---0-5h7---|-0-5h7p0----0----0-5h7p0---0-5h7---|
E|-----------------------------------|-----------------------------------|
 At home  drawin' pictures  of mountain tops   with him on  top.   Lemmin'


 G1+G3
e|-----------------------------------|-----------------------------------|
B|-----------------------------------|-----------------------------------|
G|--------------7--------------------|--------------6--------------------|
D|---------7----5--------------------|---------7----7--------------------|
A|-0-5h7-0----0-0--------------------|-0-5h7-0----0-0--------------------|
E|-----------------------------------|-----------------------------------|

 G2
G|-----------------------------------|-----------------------------------|
D|---------7----5----------7-------5-|---------7----5----------7-------5-|
A|-0-5h7p0----0----0-5h7p0---0-5h7---|-0-5h7p0----0----0-5h7p0---0-5h7---|
E|-----------------------------------|-----------------------------------|
 yellow sun. Arms raised in a "V". The dead lay in pools of marroon below.


 G1 (Full Distortion)
e|-----------------------------------|-----------------------------------|
B|---------10---8------8-------------|-----------------------------------|
G|----------9---7------7-------------|----------7---9--------------------|
D|----------7---5------7-------------|----------7---7--------------------|
A|-0-5h7-0--0---0------0-------------|-0-5h7-0--0---0--------------------|
E|-----------------------------------|-----------------------------------|

 G2
G|-----------------------------------|-----------------------------------|
D|---------7----5--------------------|----------5---7--------------------|
A|-0-5h7-0-------------7-------------|-0-5h7-0---------------------------|
E|-----------------------------------|-----------------------------------|

 G3 (Full Distortion)
e|----------5---3------3-------------|------------|----------------------|
B|----------5---3------3-------------|----------7-|-------------17-------|
G|----------6---4------0-------------|----------7-|-16h18p16p14----16p14-|
D|----------7---5------2-------------|----------7-|----------------------|
A|-0-5h7-0--7---5------0-------------|-0-5h7-0--5-|----------------------|
E|----------5---3--------------------|------------|----------------------|
 Daddy didn't  give  attention         oh,  to the fact that money didn't


 G1
e|-----------------------------------|-----------------------------------|
B|---------10---8------8-------------|-----------------------------------|
G|----------9---7------7-------------|----------7---9--------------------|
D|----------7---5------7-------------|----------7---7--------------------|
A|-0-5h7-0--0---0------0-------------|-0-5h7-0--0---0--------------------|
E|-----------------------------------|-----------------------------------|

 G2
G|-----------------------------------|-----------------------------------|
D|---------7----5--------------------|----------5---7--------------------|
A|-0-5h7-0-------------7-------------|-0-5h7-0-------------------0-5h7p0-|
E|-----------------------------------|-----------------------------------|

 G3
e|----------5---3------3-------------|------------|----------------------|
B|----------5---3------3-------------|----------7-|-------------17-------|
G|----------6---4------0-------------|----------7-|-16h18p16p14----16p14-|
D|----------7---5------2-------------|----------7-|----------------------|
A|-0-5h7-0--7---5------0-------------|-0-5h7-0--5-|----------------------|
E|----------5---3--------------------|------------|----------------------|
 care.                 King   Jeremy  The Wicked  oh, who ruled his world.


Chorus 0:58

 G1
e|--------------------------------|-0------------------------------------|
B|--------------------------------|-2------------------------------------|
G|-----10-10===10\--7----9---10---|-2------------------------------------|
D|-----10-10===10\--7----9---10---|-2------------------------------------|
A|-10---8--8====8\--5----7----8---|-0----------------------------0-5h7p0-|
E|--------------------------------|--------------------------------------|

 G2
G|------------------7----9---10\--|--------------------------------------|
D|-17--15-15===15\----------------|-7------------------------------------|
A|--------------------------------|-0----------------------------0-5h7p0-|
E|--------------------------------|--------------------------------------|

 G3
e|---------17-------------|----------------------------------------------|
B|------------17----------|-------------17----------------------17-------|
G|-14--17--------17-17-17-|-16h18p16p14----16-14-14-16h18p16p14----16p14-|
D|------------------------|----------------------------------------------|
A|------------------------|----------------------------------------------|
E|------------------------|----------------------------------------------|

 G4
e|--0-----(5)---------------------|-5------------------5-----------------|
B|--0---6-(6)-------7----5----6---|-5------------------5-----------------|
G|--0---5-(5)-------7----4----5---|-6------------------6-----------------|
D|--0---7-(7)-------7----6----7---|-7------------------7-----------------|
A|--0---8-(8)-------5----7----8---|-7------------------7-----------------|
E|------5-----------5-------------|-5------------------5-----------------|
  Jeremy  spoke in   class    today.


 G1
e|--------------------------------|-0------------------------------------|
B|------------------7----9----5---|-2-----------------------2========/17-|
G|-----10-10===10\--7----9----5---|-2--------------------2---------------|
D|-----10-10===10\--7----9----5---|-2------------------------------------|
A|-10---8--8====8\--5----7----3---|-0------------------------------------|
E|--------------------------------|--------------------------------------|

 G2
G|------------------7----9--------|--------------------------------------|
D|-17--15-15===15\-----------10\--|-7------------------------------------|
A|--------------------------------|-0------------------------------------|
E|--------------------------------|--------------------------------------|

 G3
e|---------17----------17-------|--------------------------------0-------|
B|------------17----------17----|-------------17-------------------------|
G|-14--17--------17----------17-|-16h18p16p14----16-14-14----------------|
D|------------------------------|----------------------------------------|
A|------------------------------|----------------------------------------|
E|------------------------------|----------------------------------------|

 G4
e|--0-----(5)---------------------|-5------------------------------------|
B|--0---6-(6)-------7----5----5---|-5------------------------------------|
G|--0---5-(5)-------7----4----5---|-6------------------------------------|
D|--0---7-(7)-------7----6----5---|-7------------------------------------|
A|--0---8-(8)-------5----7----3---|-7------------------------------------|
E|------5-----------5-------------|-5------------------------------------|
  Jeremy  spoke in   class    today.


Verse 1:15

 G1+G3
e|-----------------------------------|-----------------------------------|
B|-----------------------------------|-----------------------------------|
G|--------------7--------------------|--------------6--------------------|
D|---------7----5--------------------|---------7----7--------------------|
A|-0-5h7-0----0-0--------------------|-0-5h7-0----0-0--------------------|
E|-----------------------------------|-----------------------------------|

 G2
G|-----------------------------------|-----------------------------------|
D|---------7----5----------7-------5-|---------7----5----------7-------5-|
A|-0-5h7p0----0----0-5h7p0---0-5h7---|-0-5h7p0----0----0-5h7p0---0-5h7---|
E|-----------------------------------|-----------------------------------|
  Clearly I remember  pickin' on the boy. Seemed a harmless little fuck.


 G1+G3
e|-----------------------------------|-----------------------------------|
B|-----------------------------------|-----------------------------------|
G|--------------7--------------------|--------------6--------------------|
D|---------7----5--------------------|---------7----7--------------------|
A|-0-5h7-0----0-0--------------------|-0-5h7-0----0-0--------------------|
E|-----------------------------------|-----------------------------------|

 G2
G|-----------------------------------|-----------------------------------|
D|---------7----5----------7-------5-|---------7----5----------7-------5-|
A|-0-5h7p0----0----0-5h7p0---0-5h7---|-0-5h7p0----0----0-5h7p0---0-5h7---|
E|-----------------------------------|-----------------------------------|
Ooh, but we unleashed a lion. Gnashed his teeth and bit the... How could I 


 G1 (Clean)
e|---------5-(5)-----------3h5p3-----|--------------5--------------------|
B|---------5-(5)----------3----------|--------------5--------5--5--5-5---|
G|---------6-(6)---------4-----------|-----------6--6--------7--7--7-7p6-|
D|---------7-(7)--------5------------|---------7-7-----------7--7--7-7---|
A|-0-5h7-0---------------------------|-0-5h7-0-7-7-----------------------|
E|-----------------------------------|---------5-------------------------|

 G2
G|-----------------------------------|-----------------------------------|
D|---------7----5----------7-------5-|---------7----5----------7-------5-|
A|-0-5h7p0----0----0-5h7p0---0-5h7---|-0-5h7p0----0----0-5h7p0---0-5h7---|
E|-----------------------------------|-----------------------------------|

 G3
e|-----------------------------------|-----------------------------------|
B|-----------------------------------|-----------------------------------|
G|--------------7--------------------|--------------6--------------------|
D|---------7----5--------------------|---------7----7--------------------|
A|-0-5h7-0----0-0--------------------|-0-5h7-0----0-0--------------------|
E|-----------------------------------|-----------------------------------|
forget? And he hit me with a surprise left. My jaw left hurtin'. O dropped


 G1
e|-------------------------3---------|-----------5----------------5------|
B|------------------------3----------|-----------5-----------5----5----5-|
G|-----------------------4-----------|-----------6--7--6-----6h7----7--6-|
D|---------7-(7)--------5------------|---------7----7--7-----7---------7-|
A|-0-5h7-0---------------------------|-0-5h7-0-7----7--7-----------------|
E|-----------------------------------|---------5-------------------------|

 G2
G|-----------------------------------|-----------------------------------|
D|---------7----5----------7-------5-|---------7----5----------7-------5-|
A|-0-5h7p0----0----0-5h7p0---0-5h7---|-0-5h7p0----0----0-5h7p0---0-5h7---|
E|-----------------------------------|-----------------------------------|

 G3
e|-----------------------------------|-----------------------------------|
B|-----------------------------------|-----------------------------------|
G|--------------7--------------------|--------------6--------------------|
D|---------7----5--------------------|---------7----7--------------------|
A|-0-5h7-0----0-0--------------------|-0-5h7-0----0-0--------------------|
E|-----------------------------------|-----------------------------------|
wide open. Just like the day.   Oh, like the day I heard...


 G1 (Full Distortion)
e|-----------------------------------|-----------------------------------|
B|---------10---8------8-------------|-----------------------------------|
G|----------9---7------7-------------|----------7---9--------------------|
D|----------7---5------7-------------|----------7---7--------------------|
A|-0-5h7-0--0---0------0-------------|-0-5h7-0--0---0--------------------|
E|-----------------------------------|-----------------------------------|

 G2
G|-----------------------------------|-----------------------------------|
D|---------7----5--------------------|----------5---7--------------------|
A|-0-5h7-0-------------7-------------|-0-5h7-0---------------------------|
E|-----------------------------------|-----------------------------------|

 G3 (Full Distortion)
e|----------5---3------3-------------|------------|----------------------|
B|----------5---3------3-------------|----------7-|-------------17-------|
G|----------6---4------0-------------|----------7-|-16h18p16p14----16p14-|
D|----------7---5------2-------------|----------7-|----------------------|
A|-0-5h7-0--7---5------0-------------|-0-5h7-0--5-|----------------------|
E|----------5---3--------------------|------------|----------------------|
 Daddy didn't  give  affection   no, and the boy was somethin' that mommy


 G1
e|-----------------------------------|-----------------------------------|
B|---------10---8------8-------------|-----------------------------------|
G|----------9---7------7-------------|----------7---9--------------------|
D|----------7---5------7-------------|----------7---7--------------------|
A|-0-5h7-0--0---0------0-------------|-0-5h7-0--0---0--------------------|
E|-----------------------------------|-----------------------------------|

 G2
G|-----------------------------------|-----------------------------------|
D|---------7----5--------------------|----------5---7--------------------|
A|-0-5h7-0-------------7-------------|-0-5h7-0-------------------0-5h7p0-|
E|-----------------------------------|-----------------------------------|

 G3
e|----------5---3------3-------------|------------|----------------------|
B|----------5---3------3-------------|----------7-|-------------17-------|
G|----------6---4------0-------------|----------7-|-16h18p16p14----16p14-|
D|----------7---5------2-------------|----------7-|----------------------|
A|-0-5h7-0--7---5------0-------------|-0-5h7-0--5-|----------------------|
E|----------5---3--------------------|------------|----------------------|
wouldn't wear...       King   Jeremy  The Wicked  oh, who ruled his world.

Chorus 2:11

 G1
e|--------------------------------|-0------------------------------------|
B|--------------------------------|-2------------------------------------|
G|-----10-10===10\--7----9---10---|-2------------------------------------|
D|-----10-10===10\--7----9---10---|-2------------------------------------|
A|-10---8--8====8\--5----7----8---|-0----------------------------0-5h7p0-|
E|--------------------------------|--------------------------------------|

 G2
G|------------------7----9---10\--|--------------------------------------|
D|-17--15-15===15\----------------|-7------------------------------------|
A|--------------------------------|-0----------------------------0-5h7p0-|
E|--------------------------------|--------------------------------------|

 G3
e|------------------------|----------------------------------------------|
B|-17-----17--------------|-------------17----------------------17-------|
G|----17-----17-14--14-14-|-16h18p16p14----16-14-14-16h18p16p14----16-14-|
D|------------------------|----------------------------------------------|
A|------------------------|----------------------------------------------|
E|------------------------|----------------------------------------------|

 G4
e|--0-----(5)---------------------|-5------------------5-----------------|
B|--0---6-(6)-------7----5----6---|-5------------------5-----------------|
G|--0---5-(5)-------7----4----5---|-6------------------6-----------------|
D|--0---7-(7)-------7----6----7---|-7------------------7-----------------|
A|--0---8-(8)-------5----7----8---|-7------------------7-----------------|
E|------5-----------5-------------|-5------------------5-----------------|
  Jeremy  spoke in   class    today.


 G1
e|--------------------------------|-0------------------------------------|
B|--------------------------------|-2------------------------------------|
G|-----12-12===12\--7----9----5---|-2------------------------------------|
D|-14--12-12===12\--7----9----5---|-2------------------------------------|
A|-12--10-10===10\--5----7----3---|-0----------------------------0-5h7p0-|
E|--------------------------------|--------------------------------------|

 G2
G|-14--12-12===12\--7----9---10\--|--------------------------------------|
D|--------------------------------|-7------------------------------------|
A|--------------------------------|-0----------------------------0-5h7p0-|
E|--------------------------------|--------------------------------------|

 G3
e|------------------------|----------------------------------------------|
B|-17-----17--------17----|-------------17----------------------17-------|
G|----17-----17-14-----17-|-16h18p16p14----16p14-14-16h18p16p14----16-14-|
D|------------------------|----------------------------------------------|
A|------------------------|----------------------------------------------|
E|------------------------|----------------------------------------------|

 G4
e|--0-----(5)---------------------|-5------------------5-----------------|
B|--0---6-(6)-------7----5----5---|-5------------------5-----------------|
G|--0---5-(5)-------7----4----5---|-6------------------6-----------------|
D|--0---7-(7)-------7----6----5---|-7------------------7-----------------|
A|--0---8-(8)-------5----7----3---|-7------------------7-----------------|
E|------5-----------5-------------|-5------------------5-----------------|
  Jeremy  spoke in   class    today.


 G1
e|--------------------------------|-0------------------------------------|
B|--------------------------------|-2------------------------------------|
G|-9---10-10===10\--7----9---10---|-2------------------------------------|
D|-7---10-10===10\--7----9---10---|-2------------------------------------|
A|-0----8--8====8\--5----7----8---|-0----------------------------0-5h7p0-|
E|--------------------------------|--------------------------------------|

 G2
G|-14---------------7----9---10\--|--------------------------------------|
D|-----15-15===15\----------------|-7------------------------------------|
A|--------------------------------|-0----------------------------0-5h7p0-|
E|--------------------------------|--------------------------------------|

 G3
e|------------------------|----------------------------------------------|
B|-17--17--------17-------|-------------17----------------------17-------|
G|--------17-14-----17-14-|-16h18p16p14----16p14-14-16h18p16p14----16-14-|
D|------------------------|----------------------------------------------|
A|------------------------|----------------------------------------------|
E|------------------------|----------------------------------------------|

 G4
e|--0-----(5)---------------------|-5------------------5-----------------|
B|--0---6-(6)-------7----5----6---|-5------------------5-----------------|
G|--0---5-(5)-------7----4----5---|-6------------------6-----------------|
D|--0---7-(7)-------7----6----7---|-7------------------7-----------------|
A|--0---8-(8)-------5----7----8---|-7------------------7-----------------|
E|------5-----------5-------------|-5------------------5-----------------|
  Jeremy  spoke in   class    today...

Interlude 2:38

 G1+G3
e|-----------------------------------------------------------------------|
B|-----------------------------------------------------------------------|
G|-----------------------------------------------------------------------|
D|---------7~~--5~~--------7~-------5~--------7~~--5~~--------7~-------5-|
A|-0-5h7p0----0----0-5h7p0------5h7---0-5h7p0----0----0-5h7p0------5h7---|
E|---------------------------5h8--------------------------------5h8------|

 G2
G|-----------------------------------------------------------------------|
D|---------7----5----------7--------5---------7----5----------7--------5-|
A|-0-5h7p0----0----0-5h7p0------5h7---0-5h7p0----0----0-5h7p0------5h7---|
E|---------------------------5h8--------------------------------5h8------|
 Hoo hoo hoo hoo hoo hoo hoo hoo hoo hoo hoo hoo. Try to forget this. (Try
 
                                                PM....................\
 G1+G3
e|----------------------------------------------------------------------|
B|----------------------------------------------------------------------|
G|----------------------------------------------------------------------|
D|---------7~~--5~~--------7~-------5~----------x--x--7--7--7--7--7--7--|
A|-0-5h7p0----0----0-5h7p0------5h7----0-5h7p0--x--x--7--7--7--7--7--7--|
E|---------------------------5h8----------------x-----5--5--5--5--5--5--|

                                                PM....................\
 G2
G|----------------------------------------------------------------------|
D|---------7----5----------7--------5-----------------------------------|
A|-0-5h7p0----0----0-5h7p0------5h7----0-5h7p0--7--7--7--7--7--7--7--7--|
E|---------------------------5h8----------------5--5--5--5--5--5--5--5--|
 to forget this.) Try to erase this. (Try to erase this.) From the black

 G1
e|--------------------------------|-0------------------------------------|
B|--------------------------------|-2------------------------------------|
G|-9--10========\-x-7----9---10---|-2------------------------------------|
D|-7--10========\-x-7----9---10---|-2-----4------5----7------------------|
A|-0---8========\---5----7----8---|-0-----2------3----5----------0-5h7p0-|
E|--------------------------------|--------------------------------------|

 G2
G|-14---------------7----9---10\--|--------------------------------------|
D|-----15-15===15\----------------|-7-----9-----10-----12----------------|
A|--------------------------------|-0----------------------------0-5h7p0-|
E|--------------------------------|--------------------------------------|

 G3
e|------------------------|---12-------------------12--------------------|
B|-17--17--------17-------|--13-------------------13---------------------|
G|--------17-14-----17-14-|-14-------------------14----------------------|
D|------------------------|----------------------------------------------|
A|------------------------|----------------------------------------------|
E|------------------------|----------------------------------------------|
  Bo              -oh                     -oh                  -oard

Chorus 3:06

 G1
e|--------------------------------|-0------------------------------------|
B|------------------7----9----5---|-2------------------------------------|
G|------------------7----9----5---|-2------------------------------------|
D|-----12========\--7----9----5---|-2------------------------------------|
A|-12--10========\--5----7----3---|-0----------------------------0-5h7p0-|
E|--------------------------------|--------------------------------------|

 G2
G|------------------7----9--------|--------------------------------------|
D|-17--15======15\-----------10\--|-7------------------------------------|
A|--------------------------------|-0----------------------------0-5h7p0-|
E|--------------------------------|--------------------------------------|

 G3
e|------------------------|----------------------------------------------|
B|-17----17--------17-----|-------------17----------------------17-------|
G|----17----17-14-----14=-|-16h18p16p14----16-14-14-16h18p16p14----14-16-|
D|------------------------|----------------------------------------------|
A|------------------------|----------------------------------------------|
E|------------------------|----------------------------------------------|

 G4
e|--0-----(5)---------------------|-5----------------5-------------------|
B|--0---6-(6)-------7----5----5---|-5----------------5-------------------|
G|--0---5-(5)-------7----4----5---|-6----------------6-------------------|
D|--0---7-(7)-------7----6----5---|-7----------------7-------------------|
A|--0---8-(8)-------5----7----3---|-7----------------7-------------------|
E|------5-----------5-------------|-5----------------5-------------------|
  Jeremy  spoke in   class    today.

 G1
e|--------------------------------|-0------------------------------------|
B|--------------------------------|-2------------------------------------|
G|-----10========\--7----9----5---|-2------------------------------------|
D|-14--10========\--7----9----5---|-2------------------------------------|
A|-12---8========\--5----7----3---|-0----------------------------0-5h7p0-|
E|--------------------------------|--------------------------------------|

 G2
G|-14--12-12===12\--7----9---10\--|--------------------------------------|
D|--------------------------------|-7------------------------------------|
A|--------------------------------|-0----------------------------0-5h7p0-|
E|--------------------------------|--------------------------------------|

 G3
e|------------------------|----------------------------------------------|
B|-17-----17--------17----|-------------17----------------------17-------|
G|----17-----17-14-----17-|-16h18p16p14----16p14-14-16h18p16p14----16-14-|
D|------------------------|----------------------------------------------|
A|------------------------|----------------------------------------------|
E|------------------------|----------------------------------------------|

 G4
e|--0-----(5)---------------------|-5------------------5-----------------|
B|--0---6-(6)-------7----5----5---|-5------------------5-----------------|
G|--0---5-(5)-------7----4----5---|-6------------------6-----------------|
D|--0---7-(7)-------7----6----5---|-7------------------7-----------------|
A|--0---8-(8)-------5----7----3---|-7------------------7-----------------|
E|------5-----------5-------------|-5------------------5-----------------|
  Jeremy  spoke in   class    today.


 G1
e|--------------------------------|-0------------------------------------|
B|------------------7----9----5---|-2------------------------------------|
G|------------------7----9----5---|-2------------------------------------|
D|-----12========\--7----9----5---|-2----------------------------2-2-2-0-|
A|-12--10========\--5----7----3---|-0----------------------------0-0-0-0-|
E|--------------------------------|--------------------------------------|

 G2
G|------------------7----9--------|--------------------------------------|
D|-17--15======15\-----------10\--|-7----7----7-7----7-7---7-7---7-7-7-7-|
A|--------------------------------|-0----0-------------------------------|
E|--------------------------------|--------------------------------------|

 G3
e|-------------------------------|---------------------------------------|
B|-17----17--------17-----17-----|-17------17------17------17------17----|
G|----17----17-14-----14------17-|-----17-----17------17------17------17-|
D|-------------------------------|---------------------------------------|
A|-------------------------------|---------------------------------------|
E|-------------------------------|---------------------------------------|
  Jeremy   spoke   in...  spoke in.   Jeremy   spoke   in...   spoke in...

 G1
e|-------------------------------|---------------------------------------|
B|-------------------------------|-5--5----------------------------------|
G|-------------------------------|-5--5----5----5----5----5----5----5----|
D|-7---9---10-----7---9---10-----|-7--7----7----7----7----7----7----7----|
A|-------------------------------|-0--0----0----0----0----0----0----0----|
E|-------------------------------|---------------------------------------|

 G2 (continues pattern until outro)
G|-14---------------7----9---10\-|---------------------------------------|
D|-----15========\---------------|-7--7----7----7----7----7----7---------|
A|-------------------------------|-0-----------------------------0-5h7p0-|
E|-------------------------------|---------------------------------------|

 G3
e|-----------------------------------------------------------------------|
B|-17----17----17----17----17----17----17----17----x-------13----13---13-|
G|----17----17----17----17----17----17----17----17-x-x--14----14---14----|
D|-----------------------------------------------------------------------|
A|-----------------------------------------------------------------------|
E|-----------------------------------------------------------------------|

 G5 repeat until fade
G|-------------------------------|---------------------------------------|
D|-------------------------------|---------------------------------------|
A|-------------------------------|---------------------------------------|
E|-1-1---1--1-1---1-3-3---3--3-3-|-5--5----5----5----5----5----5----5----|
  Jeremy   spoke   in...       class      today...


 G1 repeat until fade
e|-------------------------------|---------------------------------------|
B|-------------------------------|-5--5--------------------------------x-|
G|-------------------------------|-5--5----5----5----5----5----5----5--x-|
D|-7---9---10-----7---9---10-----|-7--7----7----7----7----7----7----7--x-|
A|-------------------------------|-0--0----0----0----0----0----0----0--x-|
E|-------------------------------|---------------------------------------|

 G3 Repeat once
e|-------------------------------|-------------------------------------|
B|----13----13----13----13----13-|----13----13----13----13----13----13-|
G|-14----14----14----14----14----|-14----14----14----14----14----14----|
D|-------------------------------|-------------------------------------|
A|-------------------------------|-------------------------------------|
E|-------------------------------|-------------------------------------|



 G3                                 \1.5/ \1.5/ \1.5/ \1.5/ \1.5/ \1.5/
e|-x-------------------------------------------------------------------|
B|-x-------------------------------------------------------------------|
G|-x-------------------------------------------------------------------|
D|-x-------------------------------7===============-7==--7==========---|
A|-x-0h12-0h12-0h12-0h12-0h12-0h12-------------------------------------|
E|-x-------------------------------------------------------------------|



 G3  *Whammy Dip (\1.5/) 8x
e|-------------------------------------------------------------------|
B|-------------------------------------------------------------------|
G|------------------------------------14---14---14---14---14---14----|
D|-10*==========-9*========------------x----x----x----x----x----x----|
A|--------------------------12p0-12p0-12p0-12p0-12p0-12p0-12p0-12p0--|
E|-------------------------------------------------------------------|


 G3 *Whammy Dip (\1.5/) 8x **Whammy Dip same amount 16x
e|-------------------------------------------------------------------|
B|-------------------------------------------------------------------|
G|-------------------------------------------------------------------|
D|-5*==============-7**============================================--|
A|-------------------------------------------------------------------|
E|-------------------------------------------------------------------|

G3 Repeat previous two measures until fade

Outro 4:50

 G2
G|-------------------------------------|---------------------------------|
D|-------------------------------------|---------------------------------|
A|-------------------------------------|---------------------------------|
E|-------------------------------------|---------------------------------|

 G4
e|-------------------------------------|---------------------------------|
B|-------------------------------------|---------------------------------|
G|----12-------11---------7-------9----|-----4------5-------4------5-----|
D|-14-------12----12----9------10---10-|---5------7---7---5------7---7---|
A|-------0------------0-----0----------|-0-----0--------0-----0--------0-|
E|-------------------------------------|---------------------------------|

BPM Slows towards end.

 G2
G|---------------------------------|-------------------------------------|
D|---------------------------------|-------------------------------------|
A|---------------------------------|-------------------------------------|
E|---------------------------------|-------------------------------------|

 G4
e|---------------------------------|-------------------------------------|
B|---------------------------------|-------------------------------------|
G|----12-------11------------7-----|-----9-------------4----------5------|
D|-14-------12----12------9--------|-10-----10------5---------7-------7--|
A|-------0-------------x--------0--|-------------0--------0--------------|
E|---------------------------------|-------------------------------------|



 G2
G|---------------------------------|---------------<5>------------------*|
D|---------------------------------|-------<7>--------------------------*|
A|---------------------------------|------------------------------------*|
E|---------------------------------|------------------------------------*|

 G4
e|---------------------------------|------------------------------------*|
B|---------------------------------|------------------------------------*|
G|---------4-------------5---------|---------------<5>*-----------------*|
D|-----5-------------7--------7----|-------<7>--------------------------*|
A|-0------------0------------------|-0----------------------------------*|
E|---------------------------------|------------------------------------*|
*Touch harmonic late to allow fundamental frequency to ring simultaneously


Tablature Legend
----------------
 -   - string
 n   - frett 
 h   - hammer-on
 p   - pull-off
 b   - bend
 pb  - pre-bend
 r   - bend release (if no number after the r, then release immediately)
 /\  - slide into or out of (from/to "nowhere")
  - natural harmonic
n[n] - pinch harmonic (number in brackets designates number of harmonic nodes)
 ~   - vibrato
 tr  - trill
 T   - tap
 TP  - trem. picking
 PM  - palm muting
(n)  - muted or slashed note
\n/  - tremolo bar dip; n = amount to dip
 \n  - tremolo bar down
 n/  - tremolo bar up
/n\  - tremolo bar inverted dip
 =   - hold note (hold to let ring or hold bend if bending)
 <>  - volume swell (louder/softer)
 x   - represents muted slash

 *n represents a number





Comments


Popular Pearl Jam tabs & chords
Dirty Frank 3 Bass Tabs
Fatal 1 Chords
Nothingman 4 Chords
Faithful Tabs
Got Some 1 Tabs
Just Breathe 3 Tabs
Lightning Bolt 1 Tabs
Mind Your Manners Tabs
Release Tabs
In Hiding Ukulele


Song lyrics



↑ Back to top | Tablatures and chords are parodies/interpretations of the original songs. You may use it for private study, scholarship, research or language learning purposes only
© 2014 AZChords.com Contact us | Privacy policy | DMCA | Add/correct tabs | Request tabs | Top 50 tabs