» » »

Pearl Jam, Jeremy Bass tabs (ver.3)

Artists:  A B C D E F G H I J K L M N O P Q R S T U V W X Y Z # 

Jeremy Bass tabs (ver.3)

Pearl Jam Tabs
 Rating:
4/5 (4 votes)
Jeremy lessons Tabs too difficult? Try these video lessons and learn fast
                Bassist: Jeff Ament


Tuning: Standard (E, A, D, G)


Intro:
G|---------------------------------------------------------------------------|
D|-----------7----5-----------------7-----5-----------------7----5-----------|
A|--0-5h7-0-----0----------0-5h7-0-----0-----------0-5h7-0-----0-------------|
E|---------------------------------------------------------------------------|

G|---------------------------------------------------------------------------|
D|-----------7----5---5-5-5-5-5-5-5-5----------------------------------------|
A|--0-5h7-0-----0------------------------------------------------------------|
E|---------------------------------------------------------------------------|


Verse I:
G|---------------------------------------------------6-----------------------|
D|----------7---5------------7-------5------------7--7------------7-------5--|
A|--0-5h7-0---0------0-5h7-0---0-5h7------0-5h7-0---------0-5h7-0---0-5h7----|
E|---------------------------------------------------------------------------|

G|---------------------------------------------------6-----------------------|
D|----------7---5------------7-------5------------7--7------------7-------5--|
A|--0-5h7-0---0------0-5h7-0---0-5h7------0-5h7-0---------0-5h7-0---0-5h7----|
E|---------------------------------------------------------------------------|


Bridge I:
G|-----------------------------------7--6----7--6-----------------------------|
D|-----------7----7-7---7------------7--7----7--7-----------------------------|
A|--0-5h7-0------------------0-5h7-0------------------------------------------|
E|--------------5-----5-------------------------------------------------------|

G|-----------------------------------7--6-------------------------------------|
D|-----------7-------7---------------7--7----12-11----------------------------|
A|--0-5h7-0------------------0-5h7-0------------------------------------------|
E|--------------5--5----5-----------------------------------------------------|


Chorus I:
G|------------------------------------------------------------------------------|
D|----------7------------------7-----7----------7-------------------------------|
A|--0-5h7-0---8----8/5--7-8-------------0-5h7-0---8----8/5--7--3--0-------------|
E|---------------------------5---5-5--------------------------------------------|


Verse II:
G|---------------------------------------------------6-----------------------|
D|----------7---5------------7-------5------------7--7------------7-------5--|
A|--0-5h7-0---0------0-5h7-0---0-5h7------0-5h7-0---------0-5h7-0---0-5h7----|
E|---------------------------------------------------------------------------|

G|---------------------------------------------------6-----------------------|
D|----------7---5------------7-------5------------7--7------------7-------5--|
A|--0-5h7-0---0------0-5h7-0---0-5h7------0-5h7-0---------0-5h7-0---0-5h7----|
E|---------------------------------------------------------------------------|

G|---------------------------------------------------6-----------------------|
D|----------7---5------------7-------5------------7--7------------7-------5--|
A|--0-5h7-0---0------0-5h7-0---0-5h7------0-5h7-0---------0-5h7-0---0-5h7----|
E|---------------------------------------------------------------------------|

G|---------------------------------------------------6-----------------------|
D|----------7---5------------7-------5------------7--7------------7-------5--|
A|--0-5h7-0---0------0-5h7-0---0-5h7------0-5h7-0---------0-5h7-0---0-5h7----|
E|---------------------------------------------------------------------------|


Bridge II:
G|-----------------------------------7--6----7--6-----------------------------|
D|-----------7----7-7---7------------7--7----7--7-----------------------------|
A|--0-5h7-0------------------0-5h7-0------------------------------------------|
E|--------------5-----5-------------------------------------------------------|

G|-----------------------------------7--6-------------------------------------|
D|-----------7-------7---------------7--7----12-11----------------------------|
A|--0-5h7-0------------------0-5h7-0------------------------------------------|
E|--------------5--5----5-----------------------------------------------------|


Chorus II:
G|----------------------------------------------------------------------------|
D|----------7------------------7-----7----------7-5/---------------7-----7----|
A|--0-5h7-0---8----8/5--7-8-------------0-5h7-0--------5--7--3-0-----0-0------|
E|---------------------------5---5-5------------------------------------------|

G|----------------------------------------------------------------------------|
D|----------7------------------5---------7------------------------------------|
A|--0-5h7-0---8----8/5--7-8---------------------------------------------------|
E|---------------------------5---5--5-5---------------------------------------|


Change:
G|---------------------------------------------------------------------------|
D|----------7---5----------7-------5----------7---5----------7-------5-------|
A|--0-5h7-0---0----0-5h7-0---0-5h7----0-5h7-0---0----0-5h7-0---0-5h7---------|
E|---------------------------------------------------------------------------|

G|---------------------------------------------------------------------------|
D|----------7---5----------7-------5----------7---5----------7--7-7-7-7-7-7--|
A|--0-5h7-0---0----0-5h7-0---0-5h7----0-5h7-0---0----0-5h7-0-----------------|
E|---------------------------------------------------------------------------|


Chorus III:
G|---------------------------------------------------------------------------|
D|--7-------------------------------------7-5/---------------7----7----------|
A|----8----8/5--7-8---------------0-5h7-0---------5--7--3--0----0------------|
E|-------------------5--7--8--10---------------------------------------------|

G|---------------------------------------------------------------------------|
D|----------7------------------5---------7-----------------------------------|
A|--0-5h7-0---8----8/5--7-8--------------------------------------------------|
E|---------------------------5---5--5-5--------------------------------------|

G|---------------------------------------------------------------------------|
D|----------7-5/-----------------5---------7---------------------------------|
A|--0-5h7-0---------5--7--3--------------------------------------------------|
E|-----------------------------5---5--5-5------------------------------------|


Outro:
G|---------------------------------------------------------------------------|
D|------------------------------5----------------7--------------7------------|
A|---------------------------------------------------------------------------|
E|--1-1--1-1-1-1-1---3-3--3-3-3---3---5-5--5-5-5---5-5-5--5-5-5---5----------|


Great song from a great album. Viva la Grunge.
            
Submit corrections

comments powered by Disqus
↑ Back to top | Pearl Jam Bass for Jeremy. Lyrics for acoustic guitar and electric guitar. Tablatures and chords are parodies/interpretations of the original songs. You may use it for private study, scholarship, research or language learning purposes only