» » »

Pearl Jam, In The Moonlight Tabs (ver.1)

Artists:  A B C D E F G H I J K L M N O P Q R S T U V W X Y Z # 

In The Moonlight Tabs (ver.1)

Pearl Jam Tabs
 Rating:
4/5 (4 votes)
In The Moonlight lessons Tabs too difficult? Try these video lessons and learn fast
1
                

Tuning: DGDGBE (low to high)


-|------------------------------------------------------|---------------------|
-|-------------------3----------------------------------|---------------------|
-|-2--2-4--5-4-2---2----2--2-4--5-4-2-----4-------------|---------------------|
-|-0--0-0--0-0---3------0--0-0--0-0---4-4----3h5-3---2--|---------------------|
-|------------------------------------4------3---3---2--|---------------------|
-|------------------------------------------------------|---------------------|
 Intro

-|-------------------------------------------|--------------------------------|
-|-------------------3--------------------3--|--------------------------------|
-|-2--2-4--5-4-2---2----2--2-4--5-4-2---2----|--------------------------------|
-|-0--0-0--0-0---3------0--0-0--0-0---3------|--------------------------------|
-|-------------------------------------------|--------------------------------|
-|-------------------------------------------|--------------------------------|
 Verse

-|----------------------------------------------------|-----------------------|
-|-------------------3--------------------------------|-----------------------|
-|-2--2-4--5-4-2---2----2--2-4--5-4-2-----4---------2-|-----------------------|
-|-0--0-0--0-0---3------0--0-0--0-0-----4----3h5-3--2-|-----------------------|
-|------------------------------------4------3---3--2-|-----------------------|
-|----------------------------------------------------|-----------------------|


-|-------------------------------|---------------|----------------------------|
-|-------------------------------|---------------|----------------------------|
-|-2--2-4--5-4-2-----4-----------|-2--2-4--5-4-2-|----------------------------|
-|-0--0-0--0-0-----4----3h5-3--2-|-0--0-0--0-0---|----------------------------|
-|---------------4------3---3--2-|---------------|----------------------------|
-|-------------------------------|---------------|----------------------------|
 Prechorus               play 2x

-|-3-------------------------------|-3--------------------|-------------------|
-|-3------------/10\8--------------|-3--------------------|-------------------|
-|-3-------------------------------|-3--------------------|-------------------|
-|---------------------------------|---------3h5--3---2---|-------------------|
-|---------------------------------|---------3----3---2---|-------------------|
-|---------------------------------|----------------------|-------------------|
 Chorus, G1

-|-3---3--3-3-3-3-5---3-3--3-3-3-3-|-3--3-3---------------|-------------------|
-|-3---3--3-3-3-3-3---3-3--3-3-3-3-|-3--3-3---------------|-------------------|
-|-3---3--3-3-3-3-3---3-3--3-3-3-3-|-3--3-3-----------2---|-------------------|
-|-5---5--5-5-5-5-5---5-5--5-5-5-5-|-5--5-5--3h5--3---2---|-------------------|
-|---------------------------------|---------3----3---2---|-------------------|
-|---------------------------------|----------------------|-------------------|
 Chorus, G2

-|-13b15--13b15-13b15-13b15-13b15r13-10-------------10----------|-------------|
-|--------------------------------------13b15vvvvvv----13-10----|-------------|
-|-----------------------------------------------------------12-|-------------|
-|--------------------------------------------------------------|-------------|
-|--------------------------------------------------------------|-------------|
-|--------------------------------------------------------------|-------------|
 1st Solo

-|----------------------------------------------------------|-----------------|
-|-10--10--10--10-------------------------------------------|-----------------|
-|----------------12-10-12b14r12p10-12-12-12b14r12p10vv-10\-|-----------------|
-|----------------------------------------------------------|-----------------|
-|----------------------------------------------------------|-----------------|
-|----------------------------------------------------------|-----------------|


-|-------------------------------------------------------------------|--------|
-|-------------------------------------------------------------------|--------|
-|-2--2-4--5-4-2-----------------------------------------------------|--------|
-|-0--0-0--0-0-----------0--0-2--2-2-2-3-3-3-3-2--2-4--4-4-4-5-5-5-5-|--------|
-|---------------5-5-5-5-0--0-0--0-0-0-3-3-3-3-2--2-2--2-2-2-5-5-5-5-|--------|
-|---------------3-3-3-3---------------------------------------------|--------|
 1st solo rhythm

-|-----------------------------------------------------------------------|----|
-|-----------------------------------------------------------------------|----|
-|-----------------------------------------------------------------------|----|
-|------------------------------------12-12vvv-------10----12-b-13-r-12--|----|
-|-/12\10--8-vvvv--------/--12-----------------10h12---------------------|----|
-|-----------------------------10--\-------------------------------------|----|
 Outro Solo

-|----------10-------------------10-------13b15--13b15-13b15-15-15-15r13-10---|
-|-13b15vvv----13-10-13b15-15vvv----13-10-------------------------------------|
-|----------------------------------------------------------------------------|
-|----------------------------------------------------------------------------|
-|----------------------------------------------------------------------------|
-|----------------------------------------------------------------------------|
                                                   hold bend------------------|

-|-------10-------------------------------------------------------|-----------|
-|-13b15----13-10-------------------------------------------------|-----------|
-|----------------12b14-12-10-12-12b14r12-10-12-10vvvvv-----------|-----------|
-|-------------------------------------------------------10-12-10-|-----------|
-|----------------------------------------------------------------|-----------|
-|----------------------------------------------------------------|-----------|


-|----------------------------------------------------|-----------------------|
-|----------------------------------------------------|-----------------------|
-|-12b14-12-10----12b14-12-10----10-12-13-12-10----10-|-----------------------|
-|-------------12-------------12----------------12----|-----------------------|
-|----------------------------------------------------|-----------------------|
-|----------------------------------------------------|-----------------------|


-|-------------------------------------------------------------|--------------|
-|-------------------------------------------------------------|--------------|
-|-12b13r12p10----12b13r12p10----12b13r12p10----12b13r12p10----|--------------|
-|-------------12-------------12-------------12-------------12-|--------------|
-|-------------------------------------------------------------|--------------|
-|-------------------------------------------------------------|--------------|
  Play 2x, gradually increase speed

-|----------10----13b15---13b15--15b17-15b17-15b17r15p13----13-15-15b17r15-|--|
-|-------10----10----------------------------------------15----------------|--|
-|-12b14-------------------------------------------------------------------|--|
-|-------------------------------------------------------------------------|--|
-|-------------------------------------------------------------------------|--|
-|-------------------------------------------------------------------------|--|
                                                                   fade out

-|-------------------------------------|----------------------------------|---|
-|-------------------------------------|----------------------------------|---|
-|-2--2-4-5-4-2--2---------------------|-2-4-5-4-2--2---------------------|---|
-|-0--0-0-0-0-0--0-x-x-0-3--5--6-5-7-7-|-0-0-0-0-0--0-x-x-0-3--5--6-5-7-7-|---|
-|---------------0-x-x-0-3--3--5-5-7-7-|------------0-x-x-0-3--3--5-5-7-7-|---|
-|-------------------------------------|----------------------------------|---|
 Outro rhythm                           |<<<<<<< repeat and fade >>>>>>>>|

I hope this help..

have fun.
me.
            
Submit corrections

comments powered by Disqus
↑ Back to top | Pearl Jam Tabs for In The Moonlight. Lyrics for acoustic guitar and electric guitar. 1 Tablatures and chords are parodies/interpretations of the original songs. You may use it for private study, scholarship, research or language learning purposes only