» » »

Immortality Tabs (ver.4)

Artists:  A B C D E F G H I J K L M N O P Q R S T U V W X Y Z # 

Immortality Tabs (ver.4)

Pearl Jam
Rating:
0/5 (0 votes)

Tabs too difficult? Try these video lessons and learn fast.
                (Live)
Immortality
Performed by Eddie Vedder
Live in Cornice

Standard Tuning

Intro           Intro A
|------3----3-|-------------0-------3-2-0-----------0-------0---0-|
|--------3--3-|-------3-------3-----------3-------3---3---3---3---|
|--0----------|---0-----0-------0-------------0---------0---------|
|----2--------|-----2-----2---------------------2-----------------|
|3---------3--|-3-----------------3---------2---------------------|
|-------------|---------------------------------------------------|
Intro B
|-------------0-------3-2-0-----------0----|
|-------3-------3-----------3-------3---3--|
|---0-----0-------0-------------0----------|
|-----2-----2---------------------2--------|
|-3-----------------3---------2------------|
|------------------------------------------|

Play A then B after another, as many times as you wish, Eddie does it two or three times.

|----------0--------0-|-----------0--------0-----------|
|-------------3-----0-|--------------3-----0-0-0h3p0---|
|-------0--------0--0-|--------0--------0--0---------0-|
|----2--------------2-|-----2--------------2-----------|
|-3-----------------2-|--3-----------------2-----------|
|-------------------0-|--------------------0-----------|
                                  
|----------0--------0-|-----------0--------0-----|
|-------------3-----0-|--------------3-----0-----|
|-------0--------0--0-|--------0--------0--0-----|
|----2--------------2-|-----2--------------2-----|
|-3-----------------2-|--3-----------------2---2-|
|-------------------0-|--------------------0-0---|

Eddie then keeps playing this all through the verse and cuts the lyrics halfway through.
|---------------------|-----------------------|--------------------------|
|-0h3p0---------3-3-3-|-----0-----------3-3-3-|-----0h3p0---------3-3-3--|
|-------0-------2-2-2-|-------0---------2-2-2-|-----------0-------2-2-2--|
|---------0---0-------|---------2---2---------|-------------0---0-0-0-0--|
|---------------------|---2-------------------|---2----------------------|
|-----------2---------|-0---------0---2-------|-0-------------2----------|

He then does the chorus bit...
|-0-0-0-0-0-0-|-0-0-0-0-0-0-|-----------|
|-3-3-3-3-3-0-|-3-3-3-3-0-2-|-3p2-0-0h2-|
|-0-0-0-0-0-0-|-0-0-0-0-0-2-|-2---2-2---|
|-2-2-2-2-2-2-|-2-2-2-2-2-2-|-2---2-2---|
|-3-3-3-3-3-2-|-3-3-3-3-2-0-|-0---0-0---|
|-----------0-|---------0---|-----------|
 
Mess around with some hammering on at the 9th and 10th frets for the higher octave A.
|-9--10-10-10-10-9--9--|
|-10-10-10-10-10-10-10-| etc
|-9--9--9--9--9--9--9--|
|----------------------|
|----------------------|
|----------------------|
            
Tabs too difficult? Try these video lessons and learn fast.




comments powered by Disqus
↑ Back to top | Tablatures and chords are parodies/interpretations of the original songs. You may use it for private study, scholarship, research or language learning purposes only