>
 >
Immorality 1

Immorality 1 Guitar Tabs

Pearl Jam - Immorality 1 chords, tabs, tablatures, lyrics

Guitar lessons | Add/correct | Request | Top 50 tabs Artists:  A B C D E F G H I J K L M N O P Q R S T U V W X Y Z 0-9

Immorality 1 Guitar Tabs – Pearl Jam

CD, Sheet music, Poster

Do you like Immorality 1? Share with your friends now
TabsTabs v2
IMMORALITY
-----------


Hello. This is my first stab at transcibing music, but since i use the nevada
Ftp site a lot, i feel i should do my part. After a few other transcitpions,
i think mine so far is the best one of Immorailty,  here goes:-)

Firslty, here is a little advice. Just hold a C7* chord. Then take off your
First finger, and bring down your Third finger to the Second string(third
fret!!). That is the chord you should hold for the intro!!
*(see the end of this file for the fingering:)


(Timing is Off, Just Improvise:)

E--------------------0-------------------------------------
F-------------------------0--------------------------------
D---------------4---------------0--------------------------
B-----------2----------------------------------------------
G------3---------------------------------------------------E------------------
--------------------0-------------------

repeat 4x's    

:that was just the intro:-)

now, when that is over, here is the fun part. Firstly get an Em chord, then
hit like the 6th string then come heavy on the chord. Then this chord is
funny, but try and do the same thing.

E----------0-----------------------------------------------
F----------3-----------------------------------------------
D----------2-----------------------------------------------
B----------0-----------------------------------------------
G----------0-----------------------------------------------
E----------2-----------------------------------------------


hold these frets, and you'll have a weird chord. Do the Same thing where you
hit the 6th string, and then come down heavy on the chord.  then Chrous time,
just play a C Chord 6x's going quickly, then an Em. Do the same thing again.
Then do It, but after the Em play a quick A. that's all for now:-(



Feel Free To mail me Comments, Questions, Answers, Flames Anything to the
following Addreess:


bore, Weekdays are a chore


                                          C7
E----------------------------------------------------------
F--------------------1-------------------------------------
D--------------------4-------------------------------------
B--------------------2-------------------------------------
G--------------------3-------------------------------------
E----------------------------------------------------------

*hold this chord, and continue reading*





Comments


Popular Pearl Jam tabs & chords
Brain Of J Bass Tabs
Habbit Bass Tabs
Force Of Nature 2 Chords
Habit Chords
Nothingman 4 Chords
Soon Forget 2 Chords
Habit 1 Tabs
Leash Tabs
Lukin' Tabs
Comatose Ukulele


Song lyrics



↑ Back to top | Tablatures and chords are parodies/interpretations of the original songs. You may use it for private study, scholarship, research or language learning purposes only
© 2014 AZChords.com Contact us | Privacy policy | DMCA | Add/correct tabs | Request tabs | Top 50 tabs