» » »

I Believe In Miracles Tabs (ver.2)

Artists:  A B C D E F G H I J K L M N O P Q R S T U V W X Y Z # 

I Believe In Miracles Tabs (ver.2)

Pearl Jam
Rating:
0/5 (0 votes)

Hard to play? Try these video lessons and learn fast.
                (Live)
I Believe in Miracles [Live]

This is slower version of this Ramones cover, as it is 
played live at Gorge Sept.1st 2005.
I must say that I total amater and this is my first tab,
so if you find mistakes of any kind, feel free to correct it.

Intro:
e|--------------------------|--------------------------|\
B|--------------------------|--------------------------| \
G|--8--8--8--8-----8--8-[8]-|-----------8--8--8--8-----|  \
D|--9--9--9--11----9--9--9--|--9--9--9--9--9--9--9-----|  /[x3]
A|--9--9--9--9--9--9--9--9--|--9--9--9--9--9--9--9--X--| /
E|--7--7--7--7--7--7--7--7--|--0--0--0--7--7--7--7--X--|/


Verse[s]

        I used to be           on an endless run...
e|--------------------------|--------------------------|
B|--------------------------|--------------------------|
G|--8--8--8--8-----8--8-[8]-|-----------8--8--8--8-----|
D|--9--9--9--11----9--9--9--|--9--9--9--9--9--9--9-----|
A|--9--9--9--9--9--9--9--9--|--9--9--9--9--9--9--9--X--|
E|--7--7--7--7--7--7--7--7--|--0--0--0--7--7--7--7--X--|

       Believe in miracles    'cause I'm one
e|--------------------------|--------------------------|
B|--------------------------|--------------------------|
G|--8--8--8--8-----8--8-[8]-|-----------8--8--8--8-----|
D|--9--9--9--11----9--9--9--|--9--9--9--9--9--9--9-----|
A|--9--9--9--9--9--9--9--9--|--9--9--9--9--9--9--9--X--|
E|--7--7--7--7--7--7--7--7--|--0--0--0--7--7--7--7--X--|

       I've been blessed       with the power to survive   
e|--------------------------|--------------------------|
B|--------------------------|--------------------------|
G|--8--8--8--8-----8--8-[8]-|-----------8--8--8--8-----|
D|--9--9--9--11----9--9--9--|--9--9--9--9--9--9--9-----|
A|--9--9--9--9--9--9--9--9--|--9--9--9--9--9--9--9--X--|
E|--7--7--7--7--7--7--7--7--|--0--0--0--7--7--7--7--X--|


      After all these years    I'm still alive.
e|--------------------------|--------------------------|
B|--------------------------|--------------------------|
G|--7--7--7--7--7--7--7--7--|--9--9--9--9--9--9--9--9--|
D|--7--7--7--7--7--7--7--7--|--9--9--9--9--9--9--9--9--|
A|--5--5--5--5--5--5--5--5--|--7--7--7--7--7--7--7--7--|
E|--5--5--5--5--5--5--5--5--|--7--7--7--7--7--7--7--7--|


Chorus

      I              believe                    in miracles
e|--------------------------|--------------------------|
B|--------------------------|--------------------------|
G|--------------------------|--------------------------|
D|--4--4--4--4--4--4--4--4--|--5--5--5--5--5--5--5--5--|
A|--2--2--2--2--2--2--2--2--|--2--2--2--2--2--2--2--2--|
E|--------------------------|--3--3--3--3--3--3--3--3--|

                                               I believe
e|--0--0--0--0--0--0--0--0--|--0--0--0--0--0--0--0--0--|
B|--0--0--0--0--0--0--0--0--|--0--0--0--0--0--0--0--0--|
G|--1--1--1--1--1--1--1--1--|--1--1--1--1--1--1--1--1--|
D|--2--2--2--2--2--2--2--2--|--2--2--2--2--2--2--2--2--|
A|--2--2--2--2--2--2--2--2--|--2--2--2--2--2--2--2--2--|
E|--0--0--0--0--0--0--0--0--|--0--0--0--0--0--0--0--0--|

                        in a better world         for me...
e|--------------------------|--------------------------|
B|--------------------------|--------------------------|
G|--------------------------|--------------------------|
D|--4--4--4--4--4--4--4--4--|--5--5--5--5--5--5--5--5--|
A|--2--2--2--2--2--2--2--2--|--2--2--2--2--2--2--2--2--|
E|--------------------------|--3--3--3--3--3--3--3--3--|

  ...and you.
e|--0--0--0--0--0--0--0--0--|--0--0--0--0--0--0--0--0--|
B|--0--0--0--0--0--0--0--0--|--0--0--0--0--0--0--0--0--|
G|--1--1--1--1--1--1--1--1--|--1--1--1--1--1--1--1--1--|
D|--2--2--2--2--2--2--2--2--|--2--2--2--2--2--2--2--2--|
A|--2--2--2--2--2--2--2--2--|--2--2--2--2--2--2--2--2--|
E|--0--0--0--0--0--0--0--0--|--0--0--0--0--0--0--0--0--|
            
Hard to play? Try these video lessons and learn fast. | Correct




comments powered by Disqus
↑ Back to top | Tablatures and chords are parodies/interpretations of the original songs. You may use it for private study, scholarship, research or language learning purposes only