>
 >
Hummus

Hummus Guitar Tabs

Pearl Jam - Hummus chords, tabs, tablatures, lyrics

Guitar lessons | Add/correct | Request | Top 50 tabs Artists:  A B C D E F G H I J K L M N O P Q R S T U V W X Y Z 0-9

Hummus Guitar Tabs – Pearl Jam

CD, Sheet music, Poster

Do you like Hummus? Share with your friends now
Tabs
 this is my first tab, its a grat song of pearl jam.... so enjoy!!

 turning: EADGBE (standard)

 -|-5--7-7/8---7--5--4-4/7--|------------------------|--------------------------|
 -|-------------------------|------/6----------/6----|--------------------------|
 -|-------------------------|-4p0------0--4p0------0-|--------------------------|
 -|-------------------------|------------------------|--------------------------|
 -|-------------------------|------------------------|--------------------------|
 -|-------------------------|------------------------|--------------------------|
  Guitar 1                                        3x

 -|-------------------------|------------------------|--------------------------|
 -|-------------------------|------------------------|--------------------------|
 -|-5--7-7/8---7--5--4-4/7--|-4p0------0--4p0------0-|--------------------------|
 -|-------------------------|-------/6---------/6----|--------------------------|
 -|-------------------------|------------------------|--------------------------|
 -|-------------------------|------------------------|--------------------------|
  Guitar 2                                        3x


 -|-5--7-7/8---7--5-5/8--7--|--------------------------|------------------------|
 -|-------------------------|------/6------------------|------------------------|
 -|-------------------------|-4p0------0--7-5---7------|------------------------|
 -|-------------------------|-----------------0---6/10-|------------------------|
 -|-------------------------|--------------------------|------------------------|
 -|-------------------------|--------------------------|------------------------|
  Guitar 1

 -|-------------------------|--------------------------|------------------------|
 -|-------------------------|--------------------------|------------------------|
 -|-5--7-7/8---7--5-5/8--7--|-4p0------0---------------|------------------------|
 -|-------------------------|------/6-----3-1p0-3------|------------------------|
 -|-------------------------|---------------------2/3--|------------------------|
 -|-------------------------|--------------------------|------------------------|
  Guitar 2

 -|-----------------------8-7--8-10-10/11-10-8-7----|-----------------------------|
 -|---------8--------8-9----------------------------|-----------------------------|
 -|----7-8----10--10-----------------------------0--|-----------------------------|
 -|-10----------------------------------------------|-----------------------------|
 -|-------------------------------------------------|-----------------------------|
 -|-------------------------------------------------|-----------------------------|
  Guitar 1

 -|-----------------------------------------------|-----------------------------|
 -|-------------------------------3-3h4--3--------|-----------------------------|
 -|-----------------------5-4--5-----------5-4----|-----------------------------|
 -|---------5--3---3-5-6--------------------------|-----------------------------|
 -|--3-5-6----------------------------------------|-----------------------------|
 -|--------------------------------------------3--|-----------------------------|
  Guitar 2

 -|---------------------------8-7--8-10-10/11-10-8-7-|----------------------------|
 -|-------------8--------8-9-------------------------|----------------------------|
 -|--------7-8----10--10-----------------------------|----------------------------|
 -|-10--10-------------------------------------------|----------------------------|
 -|--------------------------------------------------|----------------------------|
 -|--------------------------------------------------|----------------------------|
  Guitar 1

 -|------------------------------------------------|----------------------------|
 -|-----------------------------------3-3h4--3-----|----------------------------|
 -|---------------------------5-4--5-----------5-4-|----------------------------|
 -|-------------5--3---3-5-6-----------------------|----------------------------|
 -|--3---3-5-6-------------------------------------|----------------------------|
 -|------------------------------------------------|----------------------------|
  Guitar 2

 -|-5--7-7/8---7--5--4--4/7--|-------------------------|-------------------------|
 -|--------------------------|------/6----------/6-----|-------------------------|
 -|--------------------------|-4p0------0--4p0------0--|-------------------------|
 -|--------------------------|-------------------------|-------------------------|
 -|--------------------------|-------------------------|-------------------------|
 -|--------------------------|-------------------------|-------------------------|
  Guitar 1                                         2x

 -|-------------------------|-------------------------|-------------------------|
 -|-------------------------|-------------------------|-------------------------|
 -|-5--7-7/8---7--5--4-4/7--|-4p0------0--4p0------0--|-------------------------|
 -|-------------------------|------/6----------/6-----|-------------------------|
 -|-------------------------|-------------------------|-------------------------|
 -|-------------------------|-------------------------|-------------------------|
  Guitar 2                                         2x

 -|-5--7--8---7--5--/8--7--|-------------------------|-------------------|-----|
 -|------------------------|------/6-----------------|-6-----------------|-----|
 -|------------------------|-4p0------0-7-5---7------|---0-7-5---7-------|-----|
 -|------------------------|----------------0---6/10-|---------0---6/10--|-----|
 -|------------------------|-------------------------|-------------------|-----|
 -|------------------------|-------------------------|-------------------|-----|
  Guitar 1

 -|------------------------|-------------------------|-------------------|-----|
 -|------------------------|-------------------------|-------------------|-----|
 -|-5--7--8---7--5--/8--7--|-4p0------0--------------|-1-0---------------|-----|
 -|------------------------|------/6----3-1p0-3------|-----3-1p0-3-------|-----|
 -|------------------------|--------------------2/3--|-------------2/3---|-----|
 -|------------------------|-------------------------|-------------------|-----|
  Guitar 2

 -|-----------------------8-7--8-10-11-10-8-7---|------------------------------|
 -|---------8--------8-9------------------------|------------------------------|
 -|----7-8----10--10--------------------------0-|------------------------------|
 -|-10------------------------------------------|------------------------------|
 -|---------------------------------------------|------------------------------|
 -|---------------------------------------------|------------------------------|
  Guitar 1

 -|---------------------------------------------|------------------------------|
 -|-------------------------------3--4--3-------|------------------------------|
 -|-----------------------5-4--5----------5-4---|------------------------------|
 -|---------5--3---3-5-6------------------------|------------------------------|
 -|--3-5-6--------------------------------------|------------------------------|
 -|-------------------------------------------3-|------------------------------|
  Guitar 2

 -|---------------------------8-7--8-10-11-10-8-7-|----------------------------|
 -|-------------8--------8-9----------------------|----------------------------|
 -|--------7-8----10--10--------------------------|----------------------------|
 -|-10--10----------------------------------------|----------------------------|
 -|-----------------------------------------------|----------------------------|
 -|-----------------------------------------------|----------------------------|
  Guitar 1

 -|-----------------------------------------------|----------------------------|
 -|-----------------------------------3--4--3-----|----------------------------|
 -|---------------------------5-4--5----------5-4-|----------------------------|
 -|-------------5--3---3-5-6----------------------|----------------------------|
 -|--3---3-5-6------------------------------------|----------------------------|
 -|-----------------------------------------------|----------------------------|
  Guitar 2

 -|-5--7--8---7--5--4--/7-|------------------------|---------------------------|
 -|-----------------------|------/6----------/6----|---------------------------|
 -|-----------------------|-4p0------0--4p0------0-|---------------------------|
 -|-----------------------|------------------------|---------------------------|
 -|-----------------------|------------------------|---------------------------|
 -|-----------------------|------------------------|---------------------------|
  Guitar 1                                       2x

 -|-----------------------|------------------------|---------------------------|
 -|-----------------------|------------------------|---------------------------|
 -|-5--7--8---7--5--4--/7-|-4p0------0--4p0------0-|---------------------------|
 -|-----------------------|------/6----------/6----|---------------------------|
 -|-----------------------|------------------------|---------------------------|
 -|-----------------------|------------------------|---------------------------|
  Guitar 2                                       2x

 -|-5--7--8--7--5--/8--7--|------------------------|---------------------------|
 -|-----------------------|------/6----------/6----|---------------------------|
 -|-----------------------|-4p0------0--4p0------0-|---------------------------|
 -|-----------------------|------------------------|---------------------------|
 -|-----------------------|------------------------|---------------------------|
 -|-----------------------|------------------------|---------------------------|
  Guitar 1

 -|-----------------------|------------------------|---------------------------|
 -|-----------------------|------------------------|---------------------------|
 -|-5--7--8--7--5--/8--7--|-4p0------0--4p0------0-|---------------------------|
 -|-----------------------|------/6----------/6----|---------------------------|
 -|-----------------------|------------------------|---------------------------|
 -|-----------------------|------------------------|---------------------------|
  Guitar 2

 -|-5--7--8---7--5--4--/7-|-------------------------|--------------------------|
 -|-----------------------|------/6-----------------|--------------------------|
 -|-----------------------|-4p0------0-7-5---7------|--------------------------|
 -|-----------------------|----------------0---6/10-|--------------------------|
 -|-----------------------|-------------------------|--------------------------|
 -|-----------------------|-------------------------|--------------------------|
  Guitar 1

 -|-----------------------|-------------------------|--------------------------|
 -|-----------------------|-------------------------|--------------------------|
 -|-5--7--8---7--5--4--/7-|-4p0------0--------------|--------------------------|
 -|-----------------------|------/6----3-1p0-3------|--------------------------|
 -|-----------------------|--------------------2/3--|--------------------------|
 -|-----------------------|-------------------------|--------------------------|
  Guitar 2

 -|--------------------|----------------------------------------|---------------|
 -|--------------------|----------------------------------------|---------------|
 -|--------------------|----------------------------------------|---------------|
 -|--------------------|----------------------------------------|---------------|
 -|-/10----/10----/10--|-/10--/10--/10--/10--/10--/10--/10--/10-|---------------|
 -|--------------------|----------------------------------------|---------------|
  Guitar 1 (under solo) |------------------3x-----------------------------------|

 -|--------------------------|----------------------------|---------------------|
 -|--------------------------|----------------------------|---------------------|
 -|--------------------------|----------------------------|---------------------|
 -|-----5-4----4-3----3-2----|-------5-4----4-3----3-2----|---------------------|
 -|-5-6------5------4------3-|-3-5-6------5------4------3-|---------------------|
 -|--------------------------|----------------------------|---------------------|
  Guitar 2 (under solo)       |------------6x-----------------------------------|

 -|-------------------------|--------------------------------------------------|
 -|-------------------------|--------------------------------------------------|
 -|-------------------------|--------------------------------------------------|
 -|-------5-4----4-3----3-2-|--------------------------------------------------|
 -|-3-5-6------5------4-----|--------------------------------------------------|
 -|-------------------------|--------------------------------------------------|
  Guitar 2

 -|------------------------------------|--------------------------------------|
 -|-13-15-/16-15-13-/16-15-13\11-11/13-|-13-15-/16-15-13-/16-15-13--15-/16\15-|
 -|------------------------------------|--------------------------------------|
 -|------------------------------------|--------------------------------------|
 -|------------------------------------|--------------------------------------|
 -|------------------------------------|--------------------------------------|
  Guitar 3-solo

 -|----------------------------------------------------|-----------------------|
 -|-11/13--13-13-13\8--8-11-/13--11h13p11\8--11-/13-11-|-----------------------|
 -|----------------------------------------------------|-----------------------|
 -|----------------------------------------------------|-----------------------|
 -|----------------------------------------------------|-----------------------|
 -|----------------------------------------------------|-----------------------|


 -|------------------------------------------------|---------------------------|
 -|-13-15-16-15--16/18--16h18p16-15h16p15-13h15p13-|---------------------------|
 -|------------------------------------------------|---------------------------|
 -|------------------------------------------------|---------------------------|
 -|------------------------------------------------|---------------------------|
 -|------------------------------------------------|---------------------------|


 -|-------------------------------------------------|--------------------------|
 -|-15/16-15-16-15-16-18-16-18-16-15-16-15\13-15-13-|--------------------------|
 -|-------------------------------------------------|--------------------------|
 -|-------------------------------------------------|--------------------------|
 -|-------------------------------------------------|--------------------------|
 -|-------------------------------------------------|--------------------------|


 -|-------------------------------------------------|--------------------------|
 -|-13-13-13-13-13-13-13-13-13-13-13-13-13-13-13-15-|--------------------------|
 -|-------------------------------------------------|--------------------------|
 -|-------------------------------------------------|--------------------------|
 -|-------------------------------------------------|--------------------------|
 -|-------------------------------------------------|--------------------------|


 -|-------------------------|-------------------------|-------------------------|
 -|-13-13-13-13-13-13-13-13-|-15-13-15-13-15-13-15-13-|-------------------------|
 -|-------------------------|-------------------------|-------------------------|
 -|-------------------------|-------------------------|-------------------------|
 -|-------------------------|-------------------------|-------------------------|
 -|-------------------------|-------------------------|-------------------------|
   |----------4x----------------------------------------------------------------|

 -|-------------------------|----------------------------------|----------------|
 -|-13-13-13-13-13-13-13-13-|-15-13-15-13-15-13-15-13-15/16-15-|----------------|
 -|-------------------------|----------------------------------|----------------|
 -|-------------------------|----------------------------------|----------------|
 -|-------------------------|----------------------------------|----------------|
 -|-------------------------|----------------------------------|----------------|
   |----------4x----------------------------------------------------------------|

 -|-------------------------|----------------------------------|----------------|
 -|-15h16p15-15-15\13-13/15-|-15h16p15-13h15p13-11h13p11-13/15-|----------------|
 -|-------------------------|----------------------------------|----------------|
 -|-------------------------|----------------------------------|----------------|
 -|-------------------------|----------------------------------|----------------|
 -|-------------------------|----------------------------------|----------------|
                             |----------------6x--------------------------------|

 -|-------------------------------------------|--------------------------------|
 -|-15h16p15-13h15p13-11h13p11-13/15-16-15-13-|--------------------------------|
 -|-------------------------------------------|--------------------------------|
 -|-------------------------------------------|--------------------------------|
 -|-------------------------------------------|--------------------------------|
 -|-------------------------------------------|--------------------------------|





Comments


Popular Pearl Jam tabs & chords
Hail Hail Bass Tabs
Daughter 2 Chords
Let My Love Chords
Sleeping By Myself Chords
Better Man 1 Tabs
Dirty Frank Intro Tabs
No Way 1 Tabs
Soildier Of Love Tabs
Daughter Ukulele
Other Side Ukulele


Song lyrics



↑ Back to top | Tablatures and chords are parodies/interpretations of the original songs. You may use it for private study, scholarship, research or language learning purposes only
© 2014 AZChords.com Contact us | Privacy policy | DMCA | Add/correct tabs | Request tabs | Top 50 tabs