>
 >
Hold On 1

Hold On 1 Guitar Tabs

Pearl Jam - Hold On 1 chords, tabs, tablatures, lyrics

Guitar lessons | Add/correct | Request | Top 50 tabs Artists:  A B C D E F G H I J K L M N O P Q R S T U V W X Y Z 0-9

Hold On 1 Guitar Tabs – Pearl Jam

CD, Sheet music, Poster

Do you like Hold On 1? Share with your friends now
TabsTabs v2
-----------------------------------------------------------------------
     Hold On Pearl Jam
-----------------------------------------------------------------------

Drop D on the high E string gives a National Guitar type sound
Tuning: dBGDAD

d|-0-0-/-0-0---------0-0-0-/-0-0---------0---------------|
B|-3-3-/-6-6-----5-6-3-3-3-/-6-6-----5-6-3---------------|
G|-2-2-/-5-5-----5-5-2-2-2-/-5-5-----5-5-2---------------|
D|-0-0-/-0-0-----5-5-0-0-0-/-0-0-----5-5-0---------0-3-0-|
A|-----------6-5------------------6-5----------0-0h3-----|
D|------------------------------------------0-0----------|

d|-0-0-/-0-0---------0-0-0-/-0-0---------0---------------|
B|-3-3-/-6-6-----5-6-3-3-3-/-6-6-----5-6-3---------------|
G|-2-2-/-5-5-----5-5-2-2-2-/-5-5-----5-5-2---------------|
D|-0-0-/-0-0-----5-5-0-0-0-/-0-0-----5-5-0---------0-3-0-|
A|-----------6-5------------------6-5----------0-0h3-----|
D|------------------------------------------0-0----------|

d|-0-0-/-0-0---------0-0-0-/-0-0---------0---------------|
B|-3-3-/-6-6-----5-6-3-3-3-/-6-6-----5-6-3---------------|
G|-2-2-/-5-5-----5-5-2-2-2-/-5-5-----5-5-2---------------|
D|-0-0-/-0-0-----5-5-0-0-0-/-0-0-----5-5-0---------------|
A|-----------6-5------------------6-5--------------------|
D|-------------------------------------------------------|


d|----------------------------0-0-0-0-0-------------------|
B|-3-3-3-3-3-3-3-3-3-3-3-3----3-3-3-3-3-------------------|
G|-0-0-0-0-0-0-0-0-0-0-0-0----2-2-2-2-2-------------------|
D|-0-0-0-0-0-0-0-0-0-0-0-0----0-0-0-0-0-------------------|
A|-3-3-3-2-2-2-1-1-1-0-0-0--------------------------------|
D|--------------------------------------------------------|
  3x

d|--------------------------------------------------------|
B|--------------------------------------------------------|
G|-7-7-8-8-8-8-10-10-10-10-10-10-8-8-8-8-7-7--------------|
D|-7-7-6-6-6-6--8--8--8--8--8--8-6-6-6-6-5-5--------------|
A|-5-5-6-6-6-6--8--8--8--8--8--8-6-6-6-6-5-5--------------|
D|--------------------------------------------------------|

2x
************************************
| /   slide up
| \   slide down
| h   hammer-on
| p   pull-off
| ~   vibrato
| +   harmonic
| x   Mute note
| b   Bend
| pb  Pre-bend
| br  Bend release





Comments


Popular Pearl Jam tabs & chords
Present Tense Bass Tabs
Save You Bass Tabs
Love Reign Oer Me Chords
Marker In The Sand Chords
Sirens 2 Chords
Soon Forget Chords
Even Flow Drum Tabs
I Got Id 1 Tabs
Nothingman 1 Tabs
Oceans 2 Tabs


Song lyrics



↑ Back to top | Tablatures and chords are parodies/interpretations of the original songs. You may use it for private study, scholarship, research or language learning purposes only
© 2014 AZChords.com Contact us | Privacy policy | DMCA | Add/correct tabs | Request tabs | Top 50 tabs