» » »

Pearl Jam, Hold On Tabs (ver.1)

Artists:  A B C D E F G H I J K L M N O P Q R S T U V W X Y Z # 

Hold On Tabs (ver.1)

Pearl Jam Tabs
 Rating:
4/5 (4 votes)
Hold On lessons Tabs too difficult? Try these video lessons and learn fast
                
-|-------------------x--x-----------------------------------------------------|
-|--3---/---6--------5--6---3---/--6-------5--6---3---------------------------|
-|--2---/---5--------5--5---2---/--5-------5--5---2---------------------------|
-|--0-------0--------5--5---0--------------5--5---0---------------------------|
-|-------------6--5-------------------6-5-------------------------------------|
-|----------------------------------------------------------------------------|
                                                        2x

-|----------------------------------------------------------------------------|
-|---------6--------5--6---3------3-----6-------5--6----3---------------------|
-|---2-----5--------5--5---2------2-----5-------5--5----2---------------------|
-|---0-----0--------5--5---0------0-------------5--5----0---------------------|
-|---0---------6-5--x--x--------------------6-5-x--x--------------------------|
-|----------------------------------------------------------------------------|
                                                              2x

-|---3----3--3----3---3--3----3--3--3---3--3---3--3-----|-|--5-5-5--5---5-5---|
-|---3----3--3----3---3--3----3--3--3---3--3---3--2-----|-|--3-3-3--3---3-3---|
-|---0----0--0----0---0--0----0--0--0---0--0---0--0-----|-|--2-2-2--2---2-2---|
-|---x----x--x----x---x--x----0--2--x---x--x---2--2-----|-|-------------------|
-|---3----3--3----2---2--2----x--0--1---1--1---0--0-----|-|-------------------|
-|----------------------------3-------------------------|-|-------------------|
    Prechorus                                        3x

-|----------------------------------------------------------------------------|
-|----------------------------------------------------------------------------|
-|---7--7---8----10--10--10-10-----10-10--8--8---8---7--7---------------------|
-|---7--7---8----10--10--10-10-----10-10--8--8---8---7--7---------------------|
-|---5--5---6-----8---8---8--8------8--8--6--6---6---5--5---------------------|
-|----------------------------------------------------------------------------|
     w/ Lead 1                                            2x

-|----------------------------------------------------------------------------|
-|---10--10-11v--10-11-10-8---------------8-/10v-\7v--------------------------|
-|--------------------------10v--/10v--8v-------------------------------------|
-|----------------------------------------------------------------------------|
-|----------------------------------------------------------------------------|
-|----------------------------------------------------------------------------|
    Lead 1                                         2x

-|----------------------------------------------------------------------------|
-|----------------------------------------------------------------------------|
-|-------5*-----------------------5*------------------------------------------|
-|----5*---------------5*------5*---------5*----------------------------------|
-|------------------5*-----------------5*-------------------------------------|
-|----------------------------------------------------------------------------|
    w/ Figure 1                            Repeat as necessary for V2 w/ F.1

-|---3----3--3----3---3--3----3--3--3---3--3---3--3-----|-|--5-5-5--5---5-5---|
-|---3----3--3----3---3--3----3--3--3---3--3---3--2-----|-|--3-3-3--3---3-3---|
-|---0----0--0----0---0--0----0--0--0---0--0---0--0-----|-|--2-2-2--2---2-2---|
-|---x----x--x----x---x--x----0--2--x---x--x---2--2-----|-|-------------------|
-|---3----3--3----2---2--2----x--0--1---1--1---0--0-----|-|-------------------|
-|----------------------------3-------------------------|-|-------------------|
    Prechorus                                        3x


-|----------------------------------------------------------------------------|
-|----------------------------------------------------------------------------|
-|---7--7---8----10--10--10-10-----10-10--8--8---8---7--7---------------------|
-|---7--7---8----10--10--10-10-----10-10--8--8---8---7--7---------------------|
-|---5--5---6-----8---8---8--8------8--8--6--6---6---5--5---------------------|
-|----------------------------------------------------------------------------|
    Chorus (+ Lead 1)                                                 4x

-|----------------------------------------------------------------------------|
-|----------------------------------------------------------------------------|
-|----------------------------------------------------------------------------|
-|---5--5---3---3--3---7---7---5--5-------------------------------------------|
-|---5--5---3---3--3---7---7---5--5-------------------------------------------|
-|---3--3---1---1--1---5---5---3--3-------------------------------------------|
                                     8x


Tab (c) 2003 - Given To Wail
            
Submit corrections

comments powered by Disqus
↑ Back to top | Pearl Jam Tabs for Hold On. Lyrics for acoustic guitar and electric guitar. Tablatures and chords are parodies/interpretations of the original songs. You may use it for private study, scholarship, research or language learning purposes only