» » »

Habit Bass tabs (ver.1)

Artists:  A B C D E F G H I J K L M N O P Q R S T U V W X Y Z # 

Habit Bass tabs (ver.1)

Pearl Jam
Rating:
0/5 (0 votes)

Hard to play? Try these video lessons and learn fast.
                Habit by Pearl Jam
Drop D Tuning   
                               x4
G-------------------------------|
D-------------------------------|
A-------------------------------|
D-7-0-7-6666666--7-0-7-6666530--|

0.25                x4
G--------------------|
D--------------------|
A-6-6-6-6-6-6-5-5-5--|
D--------------------|

1.03  CHORUS              x8
G--------------------------|
D--------------------------|
A--------------------------|
D-3-3-2-2-7-7-9-7-9-7-3-2--|

1.30    x3 1.51
G---------|----|
D---------|----|
A---------|----|
D-3--7-7-0|-2--|

REPEAT CHORUS

2.23
G-------------------|
D-------------------|
A-------------------|
D-3--2--5--4--3--0--|

UNDER THE SOLO - strum gently
G----------------------------------|
D----------------------------------|
A----------------------------------|
D-3-3-3-3-2-2-2-2-0-0-0-0-0-0-0-0--|

Any corrections please comment 
Thanks
            
Hard to play? Try these video lessons and learn fast. | Correct




comments powered by Disqus
↑ Back to top | Tablatures and chords are parodies/interpretations of the original songs. You may use it for private study, scholarship, research or language learning purposes only