>
 >
Gremmie Out Of Control

Gremmie Out Of Control Guitar Tabs

Pearl Jam - Gremmie Out Of Control chords, tabs, tablatures, lyrics

Guitar lessons | Add/correct | Request | Top 50 tabs Artists:  A B C D E F G H I J K L M N O P Q R S T U V W X Y Z 0-9

Gremmie Out Of Control Guitar Tabs – Pearl Jam

CD, Sheet music, Poster

Do you like Gremmie Out Of Control? Share with your friends now
Tabs
Guitar One Standard.
Guitar Two Dropped C - (C A D G B e) --> low to high.

Intro:
Guitar One 
|---------------------------------------------------------------------
|---------------------------------------------------------------------
|-palm mutes----------------------------------------------------------
|--x--x-x-x-x-x-x-x-x-------------------------------------10-10-10-10-
|--x--x-x-x-x-x-x-x-x-----tremolo picking----10-10-10-10---8--8--8--8-
|----------------------0-12/11/10/9/8/7/6/----8--8--8--8--------------

|---------------------10--12----------------8---11br-8----------------
|---9----9------------10--10--------8-----8---8--------8-12-----------
|--10br-10br-10-7-10--11b-11b-9-11v---11v-----------------------------
|---------------------------------------------------------------------
|---------------------------------------------------------------------
|---------------------------------------------------------------------

|---------------------------------------------------------------------
|---------------------------------------------------------------------
|-12-11--9-8v-12v-12v-12v---------------------------------------------
|---------------------------------------------------------------------
|---------------------------------------------------------------------
|---------------------------------------------------------------------

Guitar Two
|---------------------------------------------------------------------
|---------------------------------------------------------------------
|--5--5--5--5--5--5--5--5--5--5--5--5--5--5--5--5--5--5--5--5---------
|--5--5--5--5--5--5--5--5--5--5--5--5--5--5--5--5--5--5--5--5---------
|--3--3--3--3--3--3--3--3--3--3--3--3--3--3--3--3--3--3--3--3---------
|---------------------------------------------------------------------

verse: 
Guitar one 
|---------------------------------------------------------------------
|---------------------------------------------------------------------
|---------------------------------------------------------------------
|--10--10--10--10--10--10--10--10--10--10--10--10--10--10--10---------
|--10--10--12--10--10--12--10--10--12--10--10--12--10--10--12---------
|--8---8---8---8---8---8---8---8---8---8---8---8---8---8---8----------

|---------------------------------------------------------------------
|---------------------------------------------------------------------
|-10-10-10-10-10-10-10-10-10-10-10-10-10-10-10-10-10-10-10-10---------
|-10-10-12-10-10-10-12-10-10-10-12-10-10-10-12-10-10-10-12-10---------
|--8--8--8--8--8--8--8--8--8--8--8--8--8--8--8--8--8--8--8--8---------
|---------------------------------------------------------------------

Guitar two 
|---------------------------------------------------------------------
|---------------------------------------------------------------------
|--5-5-5-5-5-5-5-5-5-5-5-5-5-5-5-5-5-5-5-5-5-5-5-5-5-5-5-5-5-5--------
|--5-5-7-5-5-7-5-5-7-5-5-7-5-5-7-5-5-7-5-5-7-5-5-7-5-5-7-5-5-7--------
|--3-3-3-3-3-3-3-3-3-3-3-3-3-3-3-3-3-3-3-3-3-3-3-3-3-3-3-3-3-3--------
|---------------------------------------------------------------------

|---------------------------------------------------------------------
|---------------------------------------------------------------------
|-10-10-10-10-10-10-10-10-10-10-10-10-10-10-10-10-10-10-10-10---------
|-10-10-12-10-10-10-12-10-10-10-12-10-10-10-12-10-10-10-12-10---------
|--8--8--8--8--8--8--8--8--8--8--8--8--8--8--8--8--8--8--8--8---------
|---------------------------------------------------------------------

pre chorus:
Guitar one
|---------------------------------------------------------------------
|---------------------------------------------------------------------
|-----------------------------------7-7-7-7---------------------------
|-7-7-7-7--5-5-5-5-3-3-3-3-2-2-2-2--7-7-7-7---------------------------
|-7-7-7-7--5-5-5-5-3-3-3-3-2-2-2-2--5-5-5-5---------------------------
|-5-5-5-5--3-3-3-3-1-1-1-1-0-0-0-0------------------------------------

Guitar two
|---------------------------------------------------------------------
|-14-14-14-14--12-12-12-12-10-10-10-10-9-9-9-9-7-7-7-7----------------
|-14-14-14-14--12-12-12-12-10-10-10-10-9-9-9-9-7-7-7-7----------------
|-14-14-14-14--12-12-12-12-10-10-10-10-9-9-9-9-7-7-7-7----------------
|-12-12-12-12--10-10-10-10--8--8--8--8-7-7-7-7-5-5-5-5----------------
|---------------------------------------------------------------------

Chorus:
Guitar one 
|----------------------------------------------------------------------
|----------------------------------------------------13-13-13-13-13-13-
|----------------------------------------------------13-13-13-13-13-13-
|---------------7-7-7-7-7-7-7-7---12-12-14-12-12-14--13-13-13-13-13-13-
|---------------5-5-5-5-5-5-5-5---10-10-10-10-10-10--11-11-11-11-11-11-
|-12slide down\-------------------------------------------------------

|---------------------------------------------------------------------
|-7-7-----------------------------------------------------------------
|-7-7-------------------7-7-------------------------------------------
|-7-7--7-7-5-5-3-3-2-2--7-7---5-5-5-5-5-5-----------------------------
|-5-5--7-7-5-5-3-3-2-2--5-5---5-5-5-5-5-5-----------------------------
|------5-5-3-3-1-1-0-0--------3-3-3-3-3-3-----------------------------

Guitar two 
|----------------------------------------------------------------------
|----------------------------------------------------13-13-13-13-13-13-
|----------------------------------------------------13-13-13-13-13-13-
|---------------7-7-7-7-7-7-7-7---12-12-12-12-12-12--13-13-13-13-13-13-
|---------------5-5-5-5-5-5-5-5---10-10-10-10-10-10--11-11-11-11-11-11-
|-16slide down\-------------------------------------------------------

|---------------------------------------------------------------------
|-7-7-7-7--14-14-14-14--12-12-12-12-10-10-10-10-9-9-9-9-7-7-7-7-------
|-7-7-7-7--14-14-14-14--12-12-12-12-10-10-10-10-9-9-9-9-7-7-7-7-------
|-7-7-7-7--14-14-14-14--12-12-12-12-10-10-10-10-9-9-9-9-7-7-7-7-------
|-5-5-5-5--12-12-12-12--10-10-10-10--8--8--8--8-7-7-7-7-5-5-5-5-------
|---------------------------------------------------------------------

Before Solo
Guitar One
|---------------------------------------------------------------------
|---------------------------------------------------------------------
|---------------------------------------------------------------------
|-5-5-5-5-5-5---------------------------------------------------------
|-5-5-5-5-5-5---------------------------------------------------------
|-3-3-3-3-3-3---------------------------------------------------------

Guitar Two
|---------------------------------------------------------------------
|---------------------------------------------------------------------
|-12-12-12-12-12-12---------------------------------------------------
|-12-12-12-12-12-12---------------------------------------------------
|-10-10-10-10-10-10---------------------------------------------------
|---------------------------------------------------------------------

Solo 
The Part of the Dropped C guitar is right
the rest kinda also works but any help is still welcome.

Guitar Two
|---------------------------------------------------------------------
|---------------------------------------------------------------------
|---------------------------------------------------------------------
|---------------------------------------------------------------------
|---------------------------------------------------------------------
|-0-0-4-5-5-5-5/7-5-4-0-----------------------------------------------

Guitar One
|---------------------11-11-8-8---------------------------------------
|-------------------------------11p8--11p8--11p8--11p8----------------
|-----------------------------------10----10----10----10--------------
|---------------------------------------------------------------------
|---------------------------------------------------------------------
|---------------------------------------------------------------------

Guitar Two
|---------------------------------------------------------------------
|---------------------------------------------------------------------
|---------------------------------------------------------------------
|---------------------------------------------------------------------
|---------------------------------------------------------------------
|-5-5-5-9-10-10-10-10/12-12-10-9-5------------------------------------

Guitar One
|---------------------------------------------------------------------
|-----------------------------11v-----11v-----11v---------------------
|-------------------------11v-----11v-----11v-------------------------
|---------------------------------------------------------------------
|---------------------------------------------------------------------
|---------------------------------------------------------------------

Guitar Two
|---------------------------------------------------------------------
|---------------------------------------------------------------------
|---------------------------------------------------------------------
|---------------------------------------------------------------------
|---------------------------------------------------------------------
|-7-7-7-7-7-5-5-5-5-3-3h5-3-0-----------------------------------------

Guitar One
|---------------------------------------------------------------------
|-------------------------------------------12-12-12-11-11-11-10-10\--
|------------------------11-11-11-8-11bp8---12-12-12-11-11-11-10-10\--
|-----------------------------------------9-12-12-12-11-11-11-10-10\--
|---------------------------------------------------------------------
|---------------------------------------------------------------------

Then Chorus Once

And Pre Chorus Twice. 

Funny one two play, look like the 60īs are back.





Comments


Popular Pearl Jam tabs & chords
Gone Chords
Nothing As It Seems Chords
Unthought Known 1 Chords
Brain Of Jfk Tabs
Getaway 2 Tabs
Man Of The Hour 1 Tabs
Out Of My Mind Tabs
Porch Tabs
Unthought Known Tabs
Wishlist Tabs


Song lyrics



↑ Back to top | Tablatures and chords are parodies/interpretations of the original songs. You may use it for private study, scholarship, research or language learning purposes only
© 2014 AZChords.com Contact us | Privacy policy | DMCA | Add/correct tabs | Request tabs | Top 50 tabs