» » »

Pearl Jam, God's Dice Tabs (ver.1)

Artists:  A B C D E F G H I J K L M N O P Q R S T U V W X Y Z # 

God's Dice Tabs (ver.1)

Pearl Jam Tabs
 Rating:
4/5 (4 votes)
God's Dice lessons Tabs too difficult? Try these video lessons and learn fast
1
                

Great song by Ames.

------------------------------------------------------------------------------|
------------------------------------------------------------------------------|
------------------------------------------------------------------------------|
-7-7-10-10-5-5-9-9-777777777777-----------------------------------------------|
-7-7-10-10-5-5-9-9-777777777777-----------------------------------------------|
-5-5--8--8-3-3-7-7-555555555555-----------------------------------------------|
 Verse

------------------------------------------------------------------------------|
------------------------------------------------------------------------------|
------------------------------------------------------------------------------|
-3-3-8-8-7-7-10-10-5-5-9-9-777777777777---------------------------------------|
-3-3-8-8-7-7-10-10-5-5-9-9-777777777777---------------------------------------|
-1-1-6-6-5-5--8--8-3-3-7-7-555555555555---------------------------------------|
 Pre-Chorus

------------------------------------------------------------------------------|
------------------------------------------------------------------------------|
------5555555555555-7---------------------------------------------------------|
-3-3--5555555555555-7-77777777777777------------------------------------------|
-3-3--3333333333333-5-77777777777777------------------------------------------|
-1-1------------------55555555555555------------------------------------------|
 Chorus

------------------------------------------------------------------------------|
------------------------------------------------------------------------------|
---------------77776-77776----------------------------------------------------|
---------------77777-77777----------------------------------------------------|
------------------------------------------------------------------------------|
-0---2---3--------------------------------------------------------------------|
 Bridge

------------------------------------------------------------------------------|
------------------------------------------------------------------------------|
------7777777777777-9---------------------------------------------------------|
-5-5--7777777777777-9-9999999999999-------------------------------------------|
-5-5--5555555555555-7-9999999999999-------------------------------------------|
-3-3------------------7777777777777-------------------------------------------|
 Outro

Structure :

Verse
Pre-Chorus
Chorus
Verse
Pre-Chorus
Chorus
Bridge
Verse
Outro
            
Submit corrections

comments powered by Disqus
↑ Back to top | Pearl Jam Tabs for God's Dice. Lyrics for acoustic guitar and electric guitar. 1 Tablatures and chords are parodies/interpretations of the original songs. You may use it for private study, scholarship, research or language learning purposes only