>
 >
Girl

Girl Guitar Tabs

Pearl Jam - Girl chords, tabs, tablatures, lyrics

Guitar lessons | Add/correct | Request | Top 50 tabs Artists:  A B C D E F G H I J K L M N O P Q R S T U V W X Y Z 0-9

Girl Guitar Tabs – Pearl Jam

CD, Sheet music, Poster

Do you like Girl? Share with your friends now
Tabs
(07/06/99)

12^ indicates harmonic at 12th fret

-|-----|----------------------------------|-----------------------------------
-|-----|-------0---------------0----------|-----------------------------------
-|-----|----9-----9b11r9----9-----9b11r9--|-----------------------------------
-|-----|----------------------------------|-----------------------------------
-|-----|----------------------------------|-----------------------------------
-|-12\-|-0---------------0----------------|-----------------------------------
 G1                                     7x                                    

-|--------------------------------------------------------------|-------------
-|-----8---7---8----------8---7---8----------8---7---8----------|-------------
-|-----9---7---9----------9---7---9----------9---7---9----------|-------------
-|-----9---9---9----12^---9---9---9----12^---9---9---9----12^---|-------------
-|------------------12^----------------12^----------------12^---|-------------
-|--------------------------------------------------------------|-------------
 G2                                         w/wah-------|                     

-|---------------------------------------------------------------|------------
-|---------------------------------------------------------------|------------
-|---------------------------------------------------------------|------------
-|--------------9--------------------9--------------------9------|------------
-|-7--9-7-9-10-----10\--9--9-7-9-10-----10\--9--9-7-9-10-----10\-|------------
-|---------------------------------------------------------------|------------
 Verse, G1                 p.m.-|              p.m.--|                        

-|---------------------------------------------------------------|------------
-|---------------------------------------------------------------|------------
-|---------------------------------------------------------------|------------
-|--------------9--------------------9--------------------9------|------------
-|-9--9-7-9-10-----10\--7--9-7-9-10-----10\--9--9-7-9-10-----10\-|------------
-|---------------------------------------------------------------|------------
      p.m.-|            p.m.----|               p.m.-|                        

-|------------------------------------------------------------|---------------
-|------------------------------------------------------------|---------------
-|---------------------------------x-x-9----------------------|---------------
-|--------------9------------------x-x-9---------------9------|---------------
-|-9--9-7-9-10-----10\--9--9-7-9-7--------7--9-7-9-10-----10\-|---------------
-|------------------------------------------------------------|---------------
      p.m.-|               p.m.-|         p.m.----|                           

-|---------------------------------------------------------|------------------
-|---------------------------------------------------------|------------------
-|---------------------------------------------------------|------------------
-|--------------9--------------------9---------------------|------------------
-|-9--9-7-9-10-----10\--9--9-7-9-10-----10\--9--9-7-9-10\--|------------------
-|---------------------------------------------------------|------------------
      p.m.-|               p.m.-|               p.m.-|                        

-|--------------------------------------------------------------------------|-
-|--------------------------------------------------------------------------|-
-|--------------------------------------------------------------------------|-
-|--------------9-------------------9-------------------9-------------------|-
-|-7--9-7-9-10-----10\-9--9-7-9-10-----10\-9--9-7-9-10-----10\--9--9-7-9-7--|-
-|--------------------------------------------------------------------------|-
   p.m.----|              p.m.-|              p.m.-|               p.m.-|     

-|-----------------------|-----------------------|----------------------------
-|--8----7----10----8----|--8----7----10----8----|----------------------------
-|--7----6-----9----7----|--7----6-----9----7----|----------------------------
-|------------------9----|------------------9----|----------------------------
-|-----------------------|-----------------------|----------------------------
-|-----------------------|-----------------------|----------------------------
 Verse, G2            2x   w/wah               2x                             

-|---------------------------------------------------|----------|-------------
-|---------------------------------------------------|----------|-------------
-|---------------------------------------------11----|--8vvv----|-------------
-|-9--9--10---9--9--10---9--9--10---9--9--10---10----|----------|-------------
-|-9--9--10---9--9--10---9--9--10---9--9--10---10----|----------|-------------
-|-7--7---8---7--7---8---7--7---8---7--7---8----8----|----------|-------------
 Chorus, G1                      w/Fill 1             Fill 1 (G2)             

-|--------------------------------------------------------------|-------------
-|--------------------7---------------------------------7-------|-------------
-|-------------7vvv-----7-------------12--11--9---7vvv----7-----|-------------
-|------------------------9-/-10vvv----x---x--x-------------9---|-------------
-|-10--9--7---------------------------10---9--7-----------------|-------------
-|--------------------------------------------------------------|-------------
                                                                              

-|--------------------------------------------------------------------------|-
-|--------------------------------------------------------------------------|-
-|--------------------------------------------------------------------------|-
-|--------------9-------------------9-------------------9-------------------|-
-|-7--9-7-9-10-----10\-9--9-7-9-10-----10\-9--9-7-9-10-----10\-9--9-7-9-10--|-
-|--------------------------------------------------------------------------|-
 Verse, G1                p.m.-|              p.m.-|              p.m.-|      

-|-------------------------------------------------------------------------|--
-|-------------------------------------------------------------------------|--
-|-------------------------------------------------------------------------|--
-|--------------9-------------------9-------------------9------------------|--
-|-7--9-7-9-10-----10\-9--9-7-9-10-----10\-9--9-7-9-10-----10\-9--9-7-9-7--|--
-|-------------------------------------------------------------------------|--
   p.m.----|              p.m.-|              p.m.-|              p.m.-|      

-|-------------------------------------------|--------------------------------
-|-8----7----10----8----8----7----10----8----|--------------------------------
-|-7----6-----9----7----7----6-----9----7----|--------------------------------
-|-----------------9--------------------9----|--------------------------------
-|-------------------------------------------|--------------------------------
-|-------------------------------------------|--------------------------------
 Verse, G2 (w/wah)                                                            

-|--------------------------------------------------|-------------------------
-|--------------------------------------------------|-------------------------
-|---------------------------------------------11---|-------------------------
-|-9--9--10---9--9--10---9--9--10---9--9--10---10---|-------------------------
-|-9--9--10---9--9--10---9--9--10---9--9--10---10---|-------------------------
-|-7--7---8---7--7---8---7--7---8---7--7---8----8---|-------------------------
 Chorus, G1                                                                   

-|-----------------------------------------------------------------------|----
-|--------------------7-----------------------------------7--------------|----
-|-12-11--9----7vvv-----7-------------12--11--9----7vvv-----7------------|----
-|--x--x--x---------------9-/-10vvv----x---x--x---------------9-/-10vvv--|----
-|-10--9--7---------------------------10---9--7--------------------------|----
-|-----------------------------------------------------------------------|----
                                                                              

-|-------------------------------------------------|--------------------------
-|--------------------7----------------------------|--------------------------
-|-12-11--9----7vvv-----7-------------12--11--9----|--------------------------
-|--x--x--x---------------9-/-10vvv----x---x--x----|--------------------------
-|-10--9--7---------------------------10---9--7----|--------------------------
-|-------------------------------------------------|--------------------------
                                                                              

-|-------------------------------------------------|--------------------------
-|-------------------------------------------------|--------------------------
-|-------------------------------------------------|--------------------------
-|-9--9--11\--9--9--10\--9--9--10\--9--9--10-------|--------------------------
-|-------------------------------------------------|--------------------------
-|-------------------------------------------------|--------------------------
 Chorus, G2                                                                   

-|-----------------------------------------------------------------|----------
-|-------0----------------0----------------0----------------0------|----------
-|----9-----9b11r9-----9-----9b11r9-----9-----9b11r9-----9---------|----------
-|-----------------------------------------------------------------|----------
-|-----------------------------------------------------------------|----------
-|-0----------------0----------------0----------------0------------|----------
 Bridge, G1                                                                   

-|-----------------------------------------------------------------|----------
-|-----------------------------------------------------------------|----------
-|-12--/-----------12--/-----------12--/-----------12--/-----------|----------
-|-12--/---12--/---12--/---12--/---12--/---12--/---12--/---12--/---|----------
-|---------12--/-----------12--/-----------12--/-----------12--/---|----------
-|-----------------------------------------------------------------|----------
                                                                              

-|-------------------------------------------------------------------------|--
-|-------------------------------------------------------------------------|--
-|--7vvvv---7vv-9vvvv--9vvvv--12^vvvv-14vv-7vvvv--7vv-9vvvv--2vvvv--7vvvv--|--
-|-------------------------------------------------------------------------|--
-|-------------------------------------------------------------------------|--
-|-------------------------------------------------------------------------|--
 Bridge, G2(w/heavy wah)                                                      

-|------------------------------------------------------|---------------------
-|------------------------------------------------------|---------------------
-|-4vvvv--2vvvv--4vvvv--12vvvv-11vvvv-9vvvv*\-----------|---------------------
-|-------------------------------------------\----------|---------------------
-|------------------------------------------------------|---------------------
-|------------------------------------------------------|---------------------
                                          *trem.bar dive                      

-|------------------------------------------------------|---------------------
-|------------------------------------------------------|---------------------
-|-7vvv-4vvv--9vvvv--0--14vvvv--12vvvvvv--9vv-7vvvv-----|---------------------
-|------------------------------------------------------|---------------------
-|------------------------------------------------------|---------------------
-|------------------------------------------------------|---------------------
 (vibrato w/trem bar)                                                         

-|-----------------------------------------------------------------|----------
-|-----------------------------------------------------------------|----------
-|-----------------------------------------------------------------|----------
-|-4---5---4---5---4---5---4---5---4---5---4---5---4---5---4---5---|----------
-|-4---5---4---5---4---5---4---5---4---5---4---5---4---5---4---5---|----------
-|-2---3---2---3---2---3---2---3---2---3---2---3---2---3---2---3---|----------
 Solo Rhythm, G1                                                              

-|---------------------------------------------------------------|------------
-|---------------------------------------------------------------|------------
-|---------------------------------------------11----14--12--11--|------------
-|-9--9--10---9--9--10---9--9--10---9--9--10---10-----x---x---x--|------------
-|-9--9--10---9--9--10---9--9--10---9--9--10---10----12--10---9--|------------
-|-7--7---8---7--7---8---7--7---8---7--7---8----8----------------|------------
                                                                              

-|----------------------------------------|-----------------------------------
-|----------------------------------------|-----------------------------------
-|-11-12---------------11-12--------------|-----------------------------------
-|-10-10---------------10-10--------------|-----------------------------------
-|-10-10---12--10--9---10-10---12-10-9----|-----------------------------------
-|----------------------------------------|-----------------------------------
                               Repeat and fade                                

-|--------------------------------------------------------12-----|------------
-|----------------------------------------------------/12----12--|------------
-|-14b15---14b16vvv-r15-14-12-14-15-14-12-14vvvvv-\--------------|------------
-|---------------------------------------------------------------|------------
-|---------------------------------------------------------------|------------
-|---------------------------------------------------------------|------------
 Guitar Solo, G2                         wide vib.                            

-|-------12-------------------------------------------------------|-----------
-|-15b17----15-12-------------------------------------------------|-----------
-|----------------14b15r14-12----12vvvv--12-----------------------|-----------
-|----------------------------14------------14-12-----------------|-----------
-|------------------------------------------------14-13-12-10--\--|-----------
-|----------------------------------------------------------------|-----------
                                wide vib.                                     

-|----------------------------------0-3---------------|-----------------------
-|------------------------------0-3------5-5-5-5p3p0--|-----------------------
-|-2b3--3-3-3-3--3-3-3-3r2-0-/2-----------------------|-----------------------
-|----------------------------------------------------|-----------------------
-|----------------------------------------------------|-----------------------
-|----------------------------------------------------|-----------------------
    hold bend-----------|                                                     

-|-5p3p0-------5p3p0----------------------------------------|-----------------
-|-------5p3p0-------5p3p0-5p3p0----------------------------|-----------------
-|-------------------------------4p2p0-----2b3r2-0---0h2-0--|-----------------
-|-------------------------------------2p0---------2--------|-----------------
-|----------------------------------------------------------|-----------------
-|----------------------------------------------------------|-----------------
                                                                              

-|--------------------------------------------------------------------------|-
-|---------------------------------------------15-17-15-15-17b19r17p15-17vv-|-
-|-12vv------12-14-12-12-14b16r14p12-14vv--/16------------------------------|-
-|------14------------------------------------------------------------------|-
-|--------------------------------------------------------------------------|-
-|--------------------------------------------------------------------------|-
                                                                              

-|-------15-17-15-17b19--17b19--17b19-17b19-17b19--|--------------------------
-|-17-17-------------------------------------------|--------------------------
-|-------------------------------------------------|--------------------------
-|-------------------------------------------------|--------------------------
-|-------------------------------------------------|--------------------------
-|-------------------------------------------------|--------------------------
                                                                              

-|-------------------------|--------------------------------------------------
-|-------------------------|--------------------------------------------------
-|-14--12--11---11h12vvvv--|--------------------------------------------------
-|--x---x---x--------------|--------------------------------------------------
-|-12--10---9--------------|--------------------------------------------------
-|-------------------------|--------------------------------------------------
                 Repeat and fade





Comments


Popular Pearl Jam tabs & chords
Bushleaguer Bass Tabs
Alone Chords
I Am Mine Chords
Crown Of Thorns Tabs
Daughter Tabs
Habit 1 Tabs
Sirens Tabs
Wash Tabs
Wish List 1 Tabs
State Of Love And Trust Ukulele


Song lyrics



↑ Back to top | Tablatures and chords are parodies/interpretations of the original songs. You may use it for private study, scholarship, research or language learning purposes only
© 2014 AZChords.com Contact us | Privacy policy | DMCA | Add/correct tabs | Request tabs | Top 50 tabs